Oops, an error
Loading. Please wait.
We have an official Under Cover Of Darkness tab made by UG professional guitarists. Check out the tab »
×

Under Cover Of Darkness bass

version 4
version 4

Whole song

  • Exact bass line of the song with directions for how to articulate certain notes.
85 views 1 this week
2 commentsread comments
1 2 3 4 5
1 last vote to show rating
add to favorites
×
Save as Personal and add changes to this tab that will be seen only by you. Learn more ›
×
You can save this tab as Personal to edit and correct it or add notes. All changes will be seen only by you. Learn more »
launch autoscroll
font size
0
reset
guitar tuner
backing track
0:00
0:00
edit
Autoscroll
slow
fast
+/-
esc
set tempo
stop
Author
Difficulty
About this tab version
Exact bass line of the song with directions for how to articulate certain notes. Was this info helpful? Yes No
INTRO
G||--------|--------|--------|--------||  
D||--------|--------|--------|--------||  x2 
A||--------|--------|--------|--------||
E||-7-7----|-7-7----|-9-9----|-9-9----|| 


VERSE
G||--------|--------|--------------------|--------------------|
D||--------|--------|-9---------7--------|-----------7--------|
A||--------|--------|------6--9----9-6---|------6--9----9-6---|
E||---7--7-|---7--7-|----7-------------7-|----7-------------7-|


G||--------|--------|-8---------6--------|-----------6--------|
D||--------|--------|---------8----8-----|---------8----8-----|
A||---6--6-|---6--6-|----6-9---------9-6-|----6-9---------9-6-|
E||--------|--------|--------------------|--------------------|


G||--------|--------|--------------------|--------------------|
D||--------|--------|-6---------4--------|-----------4--------|
A||--------|--------|---------6----6-----|---------6----6-----|
E||---4--4-|---4--4-|----4-7---------7-4-|----4-7---------7-4-|

G||---------|---------|--8---6-|---------||  
D||---------|---------|--------|-6-6-----||  
A||-7-7-7-7-|-7-7-7-7-|--------|-----9-9-||
E||---------|---------|--------|---------|| 

G||--------|--------|--------------------|--------------------|
D||--------|--------|-9---------7--------|-----------7--------|
A||--------|--------|------6--9----9-6---|------6--9----9-6---|
E||---7--7-|---7--7-|----7-------------7-|----7-------------7-|


G||--------|--------|-8---------6--------|-----------6--------|
D||--------|--------|---------8----8-----|---------8----8-----|
A||---6--6-|---6--6-|----6-9---------9-6-|----6-9---------9-6-|
E||--------|--------|--------------------|--------------------|


G||---|---|---|---|---------|---------|----------|---------||  
D||---|---|---|---|---------|---------|----------|---------||  
A||---|-4-|-6-|---|---------|---------|----------|---------||
E||-7-|---|---|-4-|-7-7-7-7-|-7-7-7-7-|--7-7-7-7-|-7-7-7-7-|| 


PRE-CHORUS AND CHORUS 1
**staccato**
G||--------------|--------------|--------------|--------------|
D||----4-------4-|----4-------4-|----6-------6-|----6-------6-|
A||--6---6-------|--6---6-------|--7---7-------|--7---7-------|
E||--------------|--------------|--------------|--------------|

G||--------------|--------------|--------------|----------|
D||----4-------4-|----4-------4-|----4-------4-|-4-4-4-4--|  
A||--6---6-------|--6---6-------|--4---4-------|----------|
E||--------------|--------------|--------------|----------|

G||--------------|--------------|--------------|--------------|
D||----4-------4-|----4-------4-|----6-------6-|----6-------6-|
A||--6---6-------|--6---6-------|--7---7-------|--7---7-------|
E||--------------|--------------|--------------|--------------|

G||--------------|--------------|--------------|----------|
D||----4-------4-|----4-------4-|----4-------4-|--4-------|  
A||--6---6-------|--6---6-------|--4---4-------|----------|
E||--------------|--------------|--------------|----------|

**sustain**
G||--------------|--------------|--------------|--------------|
D||----4-------4-|----4-------4-|----6-------6-|----6-------6-|
A||--6---6-------|--6---6-------|--7---7-------|--7---7-------|
E||--------------|--------------|--------------|--------------|

G||--------------|--------------|--------------|----------|
D||----4-------4-|----4-------4-|----4-------4-|-4-4-4-4--|  x2
A||--6---6-------|--6---6-------|--4---4-------|----------|
E||--------------|--------------|--------------|----------|


INTRO
G||--------|--------|--------|--------||  
D||--------|--------|--------|--------||  
A||--------|--------|--------|--------||
E||-7-7----|-7-7----|-9-9----|-9-9----|| 


VERSE 2
G||--------|--------|--------------------|--------------------|
D||--------|--------|-9---------7--------|-----------7--------|
A||--------|--------|------6--9----9-6---|------6--9----9-6---|
E||---7--7-|---7--7-|----7-------------7-|----7-------------7-|

G||--------|--------|-8---------6--------|-----------6--------|
D||--------|--------|---------8----8-----|---------8----8-----|
A||---6--6-|---6--6-|----6-9---------9-6-|----6-9---------9-6-|
E||--------|--------|--------------------|--------------------|

G||---|---|---|---|---------|---------|----------|---------||  
D||---|---|---|---|---------|---------|----------|---------||  
A||---|---|-6-|-7-|---------|---------|----------|---------||
E||-7-|-9-|---|---|-7-7-7-7-|-7-7-7-7-|--7-7-7-7-|-7-7-7-7-|| 


PRE-CHORUS AND CHORUS 2
**staccato**
G||--------------|--------------|--------------|--------------|
D||----4-------4-|----4-------4-|----6-------6-|----6-------6-|
A||--6---6-------|--6---6-------|--7---7-------|--7---7-------|
E||--------------|--------------|--------------|--------------|

G||--------------|--------------|--------------|--------------|
D||----4-------4-|----4-------4-|----4-------4-|----4-------4-|
A||--6---6-------|--6---6-------|--4---4-------|--4---4-------|
E||--------------|--------------|--------------|--------------|

**sustain**
G||--------------|--------------|--------------|--------------|
D||--6-----------|--6-----------|----6-------6-|----6-------6-|
A||----6-7-----6-|----6-7-----6-|--7---7-------|--7---7-------|
E||--------------|--------------|--------------|--------------|

**staccato**
G||--------------|--------------|--------------|----------|
D||----4-------4-|----4-------4-|----4-------4-|--4-------|
A||--6---6-------|--6---6-------|--4---4-------|----------|
E||--------------|--------------|--------------|----------|

**sustain**
G||--------------|--------------|--------------|--------------|
D||----4-------4-|----4-------4-|--6---6-------|--6---6-------|
A||--6---6-------|--6---6-------|----7-------7-|----7-------7-|
E||--------------|--------------|--------------|--------------|

G||--------------|--------------|--------------|--------------|
D||--4---4-------|--4---4-------|--4---4-------|--4---4-------|
A||----6-------6-|----6-------6-|----4-------4-|----4-------4-|
E||--------------|--------------|--------------|--------------|

G||--------------|--------------|--------------|--------------|
D||----4-------4-|----4-------4-|----6-------6-|----6-------6-|
A||--6---6-------|--6---6-------|--7---7-------|--7---7-------|
E||--------------|--------------|--------------|--------------|

G||--------------|--------------|--------------|--------------|
D||----4-------4-|----4-------4-|----4-------4-|----4-------4-|
A||--6---6-------|--6---6-------|--4---4-------|--4---4-------|
E||--------------|--------------|--------------|--------------|


SOLO
G||--------------|--------------|--------------|--------------|
D||--------------|--------------|--------------|--------------|
A||--------------|--------------|-6---6----6-6-|-6---6----6-6-|
E||-9---9----9-9-|-9---9----9-9-|--------------|--------------|

G||--------------|--------------|--------------|--------------|
D||--------------|--------------|--------------|--------------|
A||--------------|--------------|--------------|--------------|
E||-9---9----9-9-|-9---9----9-9-|-7------------|--------------|

G||---------|-------------|---------|-------------|
D||---------|-------------|---------|-------------|
A||---------|-------------|---------|-------------|
E||-7-7-7-7-|-7-7-7---7-7-|-3-3-3-3-|-3-3-3---3-3-|

G||---------|-------------|---------|-------------|
D||---------|-------------|---------|-------------|
A||---------|-------------|---------|-------------|
E||-7-7-7-7-|-7-7-7---7-7-|-4-4-4-4-|-4-4-4---4-4-|

G||--------------|--------------|--------------|--------------|
D||--------------|--------------|--------------|--------------|
A||--------------|--------------|-6---6----6-6-|-6---6----6-6-|
E||-9---9----9-9-|-9---9----9-9-|--------------|--------------|

G||--------------|--------------|--------------|--------------|
D||--------------|--------------|--------------|--------------|
A||--------------|--------------|--------------|--------------|
E||-9---9----9-9-|-9---9----9-9-|-7------------|-6------------|


PRE-CHORUS AND CHORUS 2
**staccato**
G||--------------|--------------|--------------|--------------|
D||----4-------4-|----4-------4-|----6-------6-|----6-------6-|
A||--6---6-------|--6---6-------|--7---7-------|--7---7-------|
E||--------------|--------------|--------------|--------------|

G||--------------|--------------|--------------|--------------|
D||----4-------4-|----4-------4-|----4-------4-|----4-------4-|
A||--6---6-------|--6---6-------|--4---4-------|--4---4-------|
E||--------------|--------------|--------------|--------------|

**sustain**
G||--------------|--------------|--------------|--------------|
D||--6-----------|--6-----------|----6-------6-|----6-------6-|
A||----6-7-----6-|----6-7-----6-|--7---7-------|--7---7-------|
E||--------------|--------------|--------------|--------------|

**staccato**
G||--------------|--------------|--------------|----------|
D||----4-------4-|----4-------4-|----4-------4-|--4-------|
A||--6---6-------|--6---6-------|--4---4-------|----------|
E||--------------|--------------|--------------|----------|

**sustain**
G||--------------|--------------|--------------|--------------|
D||----4-------4-|----4-------4-|--6---6-------|--6---6-------|
A||--6---6-------|--6---6-------|----7-------7-|----7-------7-|
E||--------------|--------------|--------------|--------------|

G||--------------|--------------|--------------|--------------|
D||--4---4-------|--4---4-------|--4---4-------|--4---4-------|
A||----6-------6-|----6-------6-|----4-------4-|----4-------4-|
E||--------------|--------------|--------------|--------------|

G||--------------|--------------|--------------|--------------|
D||----4-------4-|----4-------4-|----6-------6-|----6-------6-|
A||--6---6-------|--6---6-------|--7---7-------|--7---7-------|
E||--------------|--------------|--------------|--------------|

G||--------------|--------------|--------------|--------------|
D||----4-------4-|----4-------4-|----4-------4-|----4-------4-|
A||--6---6-------|--6---6-------|--4---4-------|--4---4-------|
E||--------------|--------------|--------------|--------------|


OUTRO
G||--------|
D||--------| 
A||--------|
E||-7-7----|

            
            
Suggest correction
Creating personal tab
Creating personal tab
You can edit any tab online and save it as your Personal.

You can edit, replace or remove any tab part or add personal notes – all changes will be seen only by you.

Personal tabs can be accessed anytime from any device, even offline.
Learn more »
Give kudos to tab author, rate the tab!
1 2 3 4 5
comments
print report bad tab
2 comments total.
0 reply
Bassicaly 251 Mar 25, 2017 11:06 PM, edited on March 26 2017, 03:07 am

The verses are perfect, but the chorus is wrong. The notes you have are what the guitar plays, the bass goes more like this:G||----------------|-----------------|----------------|---------------|D||----------------|-----------------|----------------|---------------| A||----------------|-7-7--7-7--7--7--|----------------|---------------|E||-4-4--4-4--4--4-|-----------------|-7-7--7-7--7--7-|-2-2--2-2--2--2|G||------------------|------------------|-------------------|D||------------------|------------------|-------------------|A||------------4-4-6-|-7-7--7--7-7-6-6-4|-------------------|E||-4-4--4-4-4-------|------------------|-7-7--7--7-7-6-6-4-|G||--------------|D||--------------| A||--------------|E||-2-2--2-2-2--2-|

guest
You may want to rate the tab now too:
select rating
Wanna post a correction for this tab? Suggest correction