Oops, an error
Loading. Please wait.
We have an official Under Cover Of Darkness tab made by UG professional guitarists. Check out the tab »
×
2,161 views 18 this week
2 commentsread comments
1 2 3 4 5
2 more votes to show rating
add to favorites
×
Save as Personal and add changes to this tab that will be seen only by you. Learn more ›
×
You can save this tab as Personal to edit and correct it or add notes. All changes will be seen only by you. Learn more »
launch autoscroll
font size
0
reset
transpose
0
reset
display chords
guitar tuner
backing track
0:00
0:00
edit
Autoscroll
slow
fast
+/-
esc
set tempo
stop
Author
Strumming
There is no strumming pattern for this song yet. and get +5 IQ
Standard Tuning EADGBe 


*NO CAPO*


Intro

B  B  C#m  C#m
B  B  C#m  C#m

Riff: 
  B                  B                   C#m                       C#m

e|-------11~--------------11~-------------------12-12--11-11-10---------------------------|
B|-----------11--11----------11---11----------------------------12--------12h14p12-----12-|
G|-------------11---------------11-------------------------------------------------/14----|
D|-9-9-----------------9-9----------------11-11---------------------11-11-----------------|
A|-x-x-----------------x-x----------------x--x----------------------x--x------------------|
E|-7-7-----------------7-7----------------9--9----------------------9--9------------------|


Verse 1:  

B                                           D#m               G#m          E
Slip back out of whack at your best. it's a nightmare, so I'm joining, the army
B                                               D#m
Know how folks back out, I still call, will you hate for me now?
G#m                                    E
We got the righteous advice to use it, got everything but you can just choose it
B
I won't just be a puppet on a string...


Chorus 1: 

G#m       E           B   F#
Dooooon't gooooo that wayyyy
G#m       E           B   F#
Iiiiii'll waaaait for youuuu
G#m                                E                             B               F#
And I'm tired of all your friends, listening at your door, and I won't, I better call you
G#m        E             B        F#
So loooong my frieeeeend and adversary....But I'll wait for you..


[play intro]


Verse 2: 

B                                                   D#m
Get dressed jump out of bed and do it best, are you ok?
G#m                             E                                      B
I've been out around this town, everybody's been singing the same song 10 years...


Chorus 2: 

G#m          E        B   F#
Iiiiiiiii'll wait for you
G#m          E        B   F#
Will youuuuu wait for me too?
G#m                                    E                           B                                     F#
And they sacrifice their lives, in our land are all closed eyes, I say we're beaten down, I won't say it again
G#m          E           B             F#
Sooo looong, my giiiirl, the sorry embrace


Guitar solo: 
[written at bottom]


Chorus 3: 

G#m       E       B   F#
Dooooon't go that wayyyy
G#m       E        B   F#
Iiiiii'll wait for youuuu
G#m                                E                       B                              F#
And I'm tired of all your friends, banging down your door, get up in the morning, give it your all
G#m      E         B        F#                             B 
So long my friend and adversary....But I'll wait for you..


(abrupt end)





Guitar solo: 

e|------------------------------------------------------------------------|
B|----11-12---11-12-11-------11-12----11-12-11---------11-12---11-12-11---|
G|-9--------9----------9--11-------11----------11--9---------9----------9-|
D|------------------------------------------------------------------------|
A|------------------------------------------------------------------------|
E|------------------------------------------------------------------------|


e|--------------12--11----------11h12~p11------------11------------9-11--9-----------|
B|----11--14-12--------12----12-------------------12-----9~-11-12----------12-11-9-7-|
G|-8----------------------12---------------12-11~-------------------------------------|
D|------------------------------------------------------------------------------------|
A|------------------------------------------------------------------------------------|
E|------------------------------------------------------------------------------------|

e|----------------------------------------------------------------------------------|
B|----11-12---11-12-11-------11-12----11-12-11-------11-12---11-12-11---------------|
G|-9--------9----------9--11-------11----------11--9-------9----------9---8~~---6~~-|
D|----------------------------------------------------------------------------------|
A|----------------------------------------------------------------------------------|
E|----------------------------------------------------------------------------------|
Suggest correction
Creating personal tab
Creating personal tab
You can edit any tab online and save it as your Personal.

You can edit, replace or remove any tab part or add personal notes – all changes will be seen only by you.

Personal tabs can be accessed anytime from any device, even offline.
Learn more »
Give kudos to tab author, rate the tab!
1 2 3 4 5
comments
print report bad tab
2 comments total.
0 reply
JoshElliott27 1,292 Jun 11, 2016 11:00 AM

First verse had a C#m which should be a G#m. Good job tho, and great song!

guest
You may want to rate the tab now too:
select rating
Wanna post a correction for this tab? Suggest correction