Oops, an error
Loading. Please wait.

Vision Of Division Bass Tab

version 1
version 1

Whole song

Interactive

3,376 views 12 this week
1 commentread comment
1 2 3 4 5
please rate
add to favorites
launch autoscroll
font size
0
reset
guitar tuner
Tab Pro tools
  • play this tab
  • loop segment
  • change instrument
  • show fretboard
  • metronome
×
Best way to learn
"Vision Of Division"
Autoscroll
slow
fast
+/-
esc
set tempo
stop
Contributor
----------------------------------------------------------------------------
			     Vision of Division - The Strokes
----------------------------------------------------------------------------

Tabbed By :Alan Harrison 
e-mail: alan_harrison_9@hotmail.com
Cracking tune off the third album, riffs are definately right timings you
can make your own.  Enjoy!!!
Tuning:Standard

Riff one (intro/bridge/outro) Repeat as necessary

G|-------------------------------------------------------------------------|
D|-------------------------------------------------------------------------|
A|---7-------7-----7------7------7-7---------------------------------------| 
E|------7-10---7-10--7-10---7-10-----10------------------------------------|

Riff two (verse)
                                              Twice  / Once
G|---------------------------------------------------/---------------------|
D|-------5(x4)-9(x4)--------5(x4)-8(x4)--------------/-------5(x4)-9(x4)---|
A|-7(x8)--------------7(x8)---------------6(x8)-3(x8)/-7(x8)---------------|
E|---------------------------------------------------/---------------------|

Riff three (pre chorus)
                          Twice
G|-------------------------------------------------------------------------|
D|-4(x8)-5(x8)-------------------------------------------------------------|
A|-------------3(x8)-5(x8)-------------------------------------------------|
E|-------------------------------------------------------------------------|

Riff four (chorus)

G|-------------------------------------------------------------------------|
D|-5(x8)--------------------7(x8)-5(x8)-4(x8)------------------------------|
A|-------3(x8)-2(x16)-3(x8)------------------------------------------------|
E|-------------------------------------------------------------------------|

Those are the riffs its easy to piece together from there.
Hope you enjoy it.
============================================================================
comments
We did not receive enough feedback on this tab! Please rate:
print report bad tab
1 2 3 4 5
1 comment total.
-1 reply
Indiechadsley wrote on October 16 2006, 12:27 pm

poop i love poop

I want to post or [tab]
guest
You may want to rate the tab now too:
select rating
Please do not post tabs as comments. Select "correction" instead!