Oops, an error
Loading. Please wait.
We have an official Vision Of Division tab made by UG professional guitarists. Check out the tab »
×
68,514 views 48 this week
14 commentsread comments
1 2 3 4 5
x 17
add to favorites
×
Save as Personal and add changes to this tab that will be seen only by you. Learn more ›
×
You can save this tab as Personal to edit and correct it or add notes. All changes will be seen only by you. Learn more »
launch autoscroll
font size
0
reset
how to read this tab
guitar tuner
edit
Autoscroll
slow
fast
+/-
esc
set tempo
stop
Author
Band:  The Strokes
Album: First Impressions of Earth
Song:  Vision of Division
Copyright (c)  (RCA Records) (2006)
Transcribed By: Cameron Hustis
Email:          Wavejet@aol.com
Guitar 1 - Nick Valensi
Guitar 2 - Albert Hammond

 [Intro]
 [Guitar 1]
e|------------------------|---------------------|
B|------------------------|---------------------|
G|------------------------|---------------------|
D|------------------------|---------------------|
A|-14-17-14-12-12-17-14-11|-11-17-14-9-9-11-7/--|
E|-0--0--0--0--0--0--0--0-|-0--0--0--0-0-0--0---|

 3x
e|------------------------|---------------------|
B|------------------------|---------------------|
G|------------------------|---------------------|
D|------------------------|---------------------|
A|-14-17-14-12-12-17-12-11|-11-17-11-9-9-11-7/--|
E|-0--0--0--0--0--0--0--0-|-0--0--0--0-0-0--0---|

(Tremolo picking)
e|-12---------------------|---------------------|
B|-15^(17)----------------|---------------------|
G|------------------------|---------------------|
D|------------------------|---------------------|
A|------------------------|---------------------|
E|------------------------|---------------------|

[Guitar 1]
(Tremolo picking)
e|-16--------------|-15--------11-------|-16-------------|-15--------11-------|
B|-17--------------|-15--------12-------|-17-------------|-15--------12-------|
G|-----------------|--------------------|----------------|--------------------|
D|-----------------|--------------------|----------------|--------------------|
A|-----------------|--------------------|----------------|--------------------|
E|-----------------|--------------------|----------------|--------------------|

[Guitar 2]
e|-----------------|--------------------|----------------|--------------------|
B|-----------------|--------------------|-------x-x-x-x--|--------------------|
G|-9-9-9-9-9-9-9-9-|-12-12-12--11-11-11-|-9-9-9-x-x-x-x--|-12-12-12--11-11-11-|
D|-9-9-9-9-9-9-9-9-|-12-12-12--13-13-13-|-9-9-9-x-x-x-x--|-12-12-12--13-13-13-|
A|-7-7-7-7-7-7-7-7-|-10-10-10-----------|-7-7-7-x-x-x-x--|-10-10-10-----------|
E|-----------------|--------------------|----------------|--------------------|

e|-12--------------|-10--------6--------|-12--------------|-10--------6--------|
B|-12--------------|-11--------6--------|-12--------------|-11--------6--------|
G|-----------------|--------------------|-----------------|--------------------|
D|-----------------|--------------------|-----------------|--------------------|
A|-----------------|--------------------|-----------------|--------------------|
E|-----------------|--------------------|-----------------|--------------------|

e|-----------------|--------------------|-----------------|--------------------|
B|-------x-x-x-x---|--------------------|-x---x---x---x-x-|--------------------|
G|-9-9-9-x-x-x-x---|-12-12-12--15-15-15-|-x-9-x-9-x-9-x-x-|-12-12-12--15-15-15-|
D|-9-9-9-x-x-x-x---|-12-12-12--15-15-15-|-x-9-x-9-x-9-x-x-|-12-12-12--15-15-15-|
A|-7-7-7-x-x-x-x---|-10-10-10--13-13-13-|-x-7-x-7-x-7-x-x-|-10-10-10--13-13-13-|
E|-----------------|--------------------|-----------------|--------------------|

e|-11--------------|-12--------------|
B|-11--------------|-13--------------|
G|-----------------|-----------------|
D|-----------------|-----------------|
A|-----------------|-----------------|
E|-----------------|-----------------|

e|-----------------|-----------------|
B|-----------------|-----------------|
G|-8-8-8-8-8-8-8-8-|-5-5-5-5-5-5-5-5-|
D|-8-8-8-8-8-8-8-8-|-5-5-5-5-5-5-5-5-|
A|-6-6-6-6-6-6-6-6-|-3-3-3-3-3-3-3-3-|
E|-----------------|-----------------|

[Verse]
[Guitar 1]
e|-12--------------|-----------------|-7-----1010101010101010|1212------------|
B|-12--------------|-----------------|-5-----1111111111111111|1212------------|
G|-----------------|-----------------|-----------------------|----------------|
D|-----------------|-----------------|-----------------------|----------------|
A|-----------------|-----------------|-----------------------|----------------|
E|-----------------|-----------------|-----------------------|----------------|

e|-11--------------|-12--------------|-12--------------|-----------------|
B|-11--------------|-13--------------|-12--------------|-----------------|
G|-12--------------|-12--------------|-12--------------|-----------------|
D|-----------------|-----------------|-----------------|-----------------|
A|-----------------|-----------------|-----------------|-----------------|
E|-----------------|-----------------|-----------------|-----------------|

[Pre-Chorus]
[1st Section 2x]
(Tremolo pick all these notes 'till the end of the fourth measure)
e|-10----------10----------|-10----------10----------|
B|----10----10----10----10-|----12----12----12----12-|
G|-------11----------11----|-------12----------12----|
D|-------------------------|-------------------------|
A|-------------------------|-------------------------|
E|-------------------------|-------------------------|

e|-10-------8--------7-----|-------------------------|
B|-------------------------|-10-----7-----8-----10---|
G|----9--------9---------9-|-----7-----7-----7-----7-|
D|-------10-------10-------|-------------------------|
A|-------------------------|-------------------------|
E|-------------------------|-------------------------|

[2nd Section 2x]
e|-----------------|-------------------------|-----------------|--------------------|
B|-8-8-8-8-8-8-8-8-|-8--8--8--8--8--8--8--8--|-8-8-8-8-8-8-8-8-|-10-10-10-8-8-8-7-7-|
G|-9-9-9-9-9-9-9-9-|-9--9--9--9--9--9--9--9--|-9-9-9-9-9-9-9-9-|-8--8--8--8-8-8-8-8-|
D|-9-9-9-9-9-9-9-9-|-10-10-10-10-10-10-10-10-|-9-9-9-9-9-9-9-9-|-9--9--9--9-9-9-9-9-|
A|-----------------|-------------------------|-----------------|--------------------|
E|-----------------|-------------------------|-----------------|--------------------|

e|-7-7-----7-7-----|-7--7--------7--7--------|-7-7-----7-7-----|--------------------|
B|-8-8-----8-8-----|-8--8--------8--8--------|-8-8-----8-8-----|-10-10------10-10---|
G|-9-9-----9-9-----|-9--9--------9--9--------|-9-9-----9-9-----|-8--8-------8--8----|
D|-----------------|-------------------------|-----------------|-9--9-------9--9----|
A|-----------------|-------------------------|-----------------|--------------------|
E|-----------------|-------------------------|-----------------|--------------------|

e|-------------------------|-------------------------|
B|-8--8--8--8--8--8--8--8--|-10-10-10-10-10-10-10-10-|
G|-9--9--9--9--9--9--9--9--|-9--9--9--9--9--9--9--9--|
D|-10-10-10-10-10-10-10-10-|-10-10-10-10-10-10-10-10-|
A|-------------------------|-------------------------|
E|-------------------------|-------------------------|

e|-8--8--------8--8--------|-8--8--------8---8-------|
B|-8--8--------8--8--------|-10-10-------10--10------|
G|-9--9--------9--9--------|-9--9--------9---9-------|
D|-------------------------|-------------------------|
A|-------------------------|-------------------------|
E|-------------------------|-------------------------|

e|-------------------------|-------------------------|
B|-12-12-12-12-12-12-12-12-|-10-10-10-10-10-10-10-10-|
G|-12-12-12-12-12-12-12-12-|-11-11-11-11-11-11-11-11-|
D|-12-12-12-12-12-12-12-12-|-10-10-10-10-10-10-10-10-|
A|-------------------------|-------------------------|
E|-------------------------|-------------------------|

e|-------------------------|-------------------------|
B|-12-12-------12-12-------|-10-10-------10-10-------|
G|-12-12-------12-12-------|-11-11-------11-11-------|
D|-12-12-------12-12-------|-10-10-------10-10-------|
A|-------------------------|-------------------------|
E|-------------------------|-------------------------|

[Chorus]
(Tremolo picking)
e|-16--------------|-15--------11-------|-16-------------|-15--------11-------|
B|-17--------------|-15--------12-------|-17-------------|-15--------12-------|
G|-----------------|--------------------|----------------|--------------------|
D|-----------------|--------------------|----------------|--------------------|
A|-----------------|--------------------|----------------|--------------------|
E|-----------------|--------------------|----------------|--------------------|

e|-----------------|--------------------|-----------------|--------------------|
B|-----------------|--------------------|-----------------|--------------------|
G|-9-9-9-9-9-9-9-9-|-12-12-12--11-11-11-|-9-9-9-9-9-9-9-9-|-12-12-12--11-11-11-|
D|-9-9-9-9-9-9-9-9-|-12-12-12--13-13-13-|-9-9-9-9-9-9-9-9-|-12-12-12--13-13-13-|
A|-7-7-7-7-7-7-7-7-|-10-10-10-----------|-7-7-7-7-7-7-7-7-|-10-10-10-----------|
E|-----------------|--------------------|-----------------|--------------------|

e|-12--------------|-10--------6--------|-12--------------|-10--------6--------|
B|-12--------------|-11--------6--------|-12--------------|-11--------6--------|
G|-----------------|--------------------|-----------------|--------------------|
D|-----------------|--------------------|-----------------|--------------------|
A|-----------------|--------------------|-----------------|--------------------|
E|-----------------|--------------------|-----------------|--------------------|

e|-----------------|--------------------|-----------------|--------------------|
B|-----------------|--------------------|-----------------|--------------------|
G|-9-9-9-9-9-9-9-9-|-12-12-12--15-15-15-|-9-9-9-9-9-9-9-9-|-12-12-12--15-15-15-|
D|-9-9-9-9-9-9-9-9-|-12-12-12--15-15-15-|-9-9-9-9-9-9-9-9-|-12-12-12--15-15-15-|
A|-7-7-7-7-7-7-7-7-|-10-10-10--13-13-13-|-7-7-7-7-7-7-7-7-|-10-10-10--13-13-13-|
E|-----------------|--------------------|-----------------|--------------------|

e|-11--------------|-12--------------|
B|-11--------------|-13--------------|
G|-----------------|-----------------|
D|-----------------|-----------------|
A|-----------------|-----------------|
E|-----------------|-----------------|

e|-----------------|-----------------|
B|-----------------|-----------------|
G|-8-8-8-8-8-8-8-8-|-5-5-5-5-5-5-5-5-|
D|-8-8-8-8-8-8-8-8-|-5-5-5-5-5-5-5-5-|
A|-6-6-6-6-6-6-6-6-|-3-3-3-3-3-3-3-3-|
E|-----------------|-----------------|

[Solo]
e|-0---1---4---5---7-|--5---4---1---0----|-0---1---4---5---7-|--5---4---1---0----|
B|-------------------|-------------------|-------------------|-------------------|
G|-------------------|-------------------|-------------------|-------------------|
D|-------------------|-------------------|-------------------|-------------------|
A|-------------------|-------------------|-------------------|-------------------|
E|-------------------|-------------------|-------------------|-------------------|

e|-------------------|-------------------|-------------------|-------------------|
B|-------------------|-------------------|-------------------|-------------------|
G|-9---9---9---9---9-|--9---9---9---9----|-9---9---9---9---9-|--9---9---9---9----|
D|-9---9---9---9---9-|--9---9---9---9----|-9---9---9---9---9-|--9---9---9---9----|
A|-7---7---7---7---7-|--7---7---7---7----|-7---7---7---7---7-|--7---7---7---7----|
E|-------------------|-------------------|-------------------|-------------------|

e|-7p0-7-8-7p0-5-0-7p0-7-8-7p0-5-0-|-7p0-7-8-7p0-5-0-7p0-7-8-7p0-5-0-|
B|---------------------------------|---------------------------------|
G|---------------------------------|---------------------------------|
D|---------------------------------|---------------------------------|
A|---------------------------------|---------------------------------|
E|---------------------------------|---------------------------------|

e|---------------------------------|---------------------------------|
B|---------------------------------|---------------------------------|
G|-9---9---9---9---9---9---9---9---|-9---9---9---9---9---9---9---9---|
D|-9---9---9---9---9---9---9---9---|-9---9---9---9---9---9---9---9---|
A|-7---7---7---7---7---7---7---7---|-7---7---7---7---7---7---7---7---|
E|---------------------------------|---------------------------------|

(Tremolo pick)4x
e|-8---------------|
B|-8---------------|
G|-----------------|
D|-----------------|
A|-----------------|
E|-----------------|

e|-----------------|
B|-----------------|
G|-9-9-9-9-9-9-9-9-|
D|-9-9-9-9-9-9-9-9-|
A|-7-7-7-7-7-7-7-7-|
E|-----------------|

e|-12p0-10-12-10p0-8-10-8p0-7-8-7p0-1-4-|-----------------7-7-7-7-7-7-7-7-|
B|--------------------------------------|-5-5-5-5-5-5-5-5-5-5-5-5-5-5-5-5-|
G|--------------------------------------|---------------------------------|
D|--------------------------------------|---------------------------------|
A|--------------------------------------|---------------------------------|
E|--------------------------------------|---------------------------------|

e|--------------------------------------|---------------------------------|
B|--------------------------------------|---------------------------------|
G|-9----9----9----9----9----9----9----9-|-9---9---9---9---9---9---9---9---|
D|-9----9----9----9----9----9----9----9-|-9---9---9---9---9---9---9---9---|
A|-7----7----7----7----7----7----7----7-|-7---7---7---7---7---7---7---7---|
E|--------------------------------------|---------------------------------|

e|-12p0-10-12-10p0-8-10-8p0-4-5/7-0h1-4-|-0-0-0-0-0-0-0-0-0-0-0-0-0-0-0-0-|
B|--------------------------------------|---------------------------------|
G|--------------------------------------|---------------------------------|
D|--------------------------------------|---------------------------------|
A|--------------------------------------|---------------------------------|
E|--------------------------------------|---------------------------------|

e|--------------------------------------|---------------------------------|
B|--------------------------------------|---------------------------------|
G|-9----9----9----9----9----9----9----9-|-9---9---9---9---9---9---9---9---|
D|-9----9----9----9----9----9----9----9-|-9---9---9---9---9---9---9---9---|
A|-7----7----7----7----7----7----7----7-|-7---7---7---7---7---7---7---7---|
E|--------------------------------------|---------------------------------|

 3x
e|-7p0-4p0-5p0-2p0-8p0-5p0-7p0-4p0-|
B|---------------------------------|
G|---------------------------------|
D|---------------------------------|
A|---------------------------------|
E|---------------------------------|

e|---------------------------------|
B|---------------------------------|
G|-9---9---9---9---9---9---9---9---|
D|-9---9---9---9---9---9---9---9---|
A|-7---7---7---7---7---7---7---7---|
E|---------------------------------|

e|-7p0-4p0-5p0-2p0-1212121212121212|
B|-----------------1212121212121212|
G|---------------------------------|
D|---------------------------------|
A|---------------------------------|
E|---------------------------------|

e|---------------------------------|
B|---------------------------------|
G|-9---9---9---9---9---9---9---9---|
D|-9---9---9---9---9---9---9---9---|
A|-7---7---7---7---7---7---7---7---|
E|---------------------------------|

 (Tremolo picking)
e|-12--------------|-15--------11-------|-12--------------|-15--------11-------|
B|-12--------------|-15--------12-------|-12--------------|-15--------12-------|
G|-----------------|--------------------|-----------------|--------------------|
D|-----------------|--------------------|-----------------|--------------------|
A|-----------------|--------------------|-----------------|--------------------|
E|-----------------|--------------------|-----------------|--------------------|

e|-----------------|--------------------|-----------------|--------------------|
B|-----------------|--------------------|-----------------|--------------------|
G|-9-9-9-9-9-9-9-9-|-12-12-12--11-11-11-|-9-9-9-9-9-9-9-9-|-12-12-12--11-11-11-|
D|-9-9-9-9-9-9-9-9-|-12-12-12--13-13-13-|-9-9-9-9-9-9-9-9-|-12-12-12--13-13-13-|
A|-7-7-7-7-7-7-7-7-|-10-10-10-----------|-7-7-7-7-7-7-7-7-|-10-10-10-----------|
E|-----------------|--------------------|-----------------|--------------------|

e|-------------7---|---------------8--7-|------------15-14|--------------12-11-|
B|-8-------------7-|--------------------|-----------------|--------------------|
G|-----------------|--------------------|-----------------|--------------------|
D|-----------------|--------------------|-----------------|--------------------|
A|-----------------|--------------------|-----------------|--------------------|
E|-----------------|--------------------|-----------------|--------------------|

e|-12--------------|-10--------6--------|-12--------------|-10--------6--------|
B|-12--------------|-11--------6--------|-12--------------|-11--------6--------|
G|-----------------|--------------------|-----------------|--------------------|
D|-----------------|--------------------|-----------------|--------------------|
A|-----------------|--------------------|-----------------|--------------------|
E|-----------------|--------------------|-----------------|--------------------|

e|-----------------|--------------------|-----------------|--------------------|
B|-----------------|--------------------|-----------------|--------------------|
G|-9-9-9-9-9-9-9-9-|-12-12-12--15-15-15-|-9-9-9-9-9-9-9-9-|-12-12-12--15-15-15-|
D|-9-9-9-9-9-9-9-9-|-12-12-12--15-15-15-|-9-9-9-9-9-9-9-9-|-12-12-12--15-15-15-|
A|-7-7-7-7-7-7-7-7-|-10-10-10--13-13-13-|-7-7-7-7-7-7-7-7-|-10-10-10--13-13-13-|
E|-----------------|--------------------|-----------------|--------------------|

e|-------------8-7-|-------6---5--3--0--|-----------------|------------1--3--1-|
B|-----------------|--------------------|-----------------|--------------------|
G|-----------------|--------------------|-----------------|--------------------|
D|-----------------|--------------------|-----------------|--------------------|
A|-----------------|--------------------|-----------------|--------------------|
E|-----------------|--------------------|-----------------|--------------------|

e|-11--------------|-12--------------|
B|-11--------------|-13--------------|
G|-----------------|-----------------|
D|-----------------|-----------------|
A|-----------------|-----------------|
E|-----------------|-----------------|

e|-----------------|-----------------|
B|-----------------|-----------------|
G|-8-8-8-8-8-8-8-8-|-5-5-5-5-5-5-5-5-|
D|-8-8-8-8-8-8-8-8-|-5-5-5-5-5-5-5-5-|
A|-6-6-6-6-6-6-6-6-|-3-3-3-3-3-3-3-3-|
E|-----------------|-----------------|

e|-----------1---1-|-------------1-0-|
B|-4-----------4---|-1-------0-1-----|
G|-----------------|-----------------|
D|-----------------|-----------------|
A|-----------------|-----------------|
E|-----------------|-----------------|

 [Outro]3x
e|------------------------|---------------------|
B|------------------------|---------------------|
G|------------------------|---------------------|
D|------------------------|---------------------|
A|-14-17-14-12-12-17-12-11|-11-17-11-9-9-11-7/--|
E|-0--0--0--0--0--0--0--0-|-0--0--0--0-0-0--0---|

 (Tremolo picking)
e|-12---------------------|---------------------|
B|-15^(17)----------------|---------------------|
G|------------------------|---------------------|
D|------------------------|---------------------|
A|------------------------|---------------------|
E|------------------------|---------------------|

e|------------------------|---------------------|
B|------------------------|---------------------|
G|------------------------|---------------------|
D|------------------------|---------------------|
A|-14-17-14-12-12-17-12-11|-11-17-11-9-9-11-7/--|
E|-0--0--0--0--0--0--0--0-|-0--0--0--0-0-0--0---|

e|-12---------------------|---------------------|
B|-15^(17)----------------|---------------------|
G|------------------------|---------------------|
D|------------------------|---------------------|
A|------------------------|---------------------|
E|------------------------|---------------------|
Suggest correction
Creating personal tab
Creating personal tab
You can edit any tab online and save it as your Personal.

You can edit, replace or remove any tab part or add personal notes – all changes will be seen only by you.

Personal tabs can be accessed anytime from any device, even offline.
Learn more »
comments
print report bad tab
14 comments total. Showing first comments.
+1 reply
wasp2020 793 Jan 12, 2006 10:23 AM

Very nice, but for the palm muted part, I think this sounds a bit better:

||-10----------10----------|-10----------10----------|
||----10----10----10----10-|----12----12----12----12-|
||-------11----------11----|-------12----------12----|
||-------------------------|-------------------------|
||-------------------------|-------------------------|
||-------------------------|-------------------------|


||-10-------8--------7-----|-------------------------|
||----8-------8--------8---|-10-----7-----8-----10---|
||------7-------7----------|-----7-----7-----7-----7-|
||-------------------------|-------------------------|
||-------------------------|-------------------------|
||-------------------------|-------------------------|

+1 reply
Botman 249 Jan 12, 2006 07:30 PM

Thanks for the comments. I tried what you put and the 3rd and 4th measures dont go with the song. If you slow that part down with windows media player, you can tell that Nick's playing something different.

+2 reply
rosswb 10 Jan 16, 2006 06:54 PM

i play the first part like this

||---------------------------------------------|
||---------------------------------------------|
||---------------------------------------------|
||----------------12----------12---------------|
||-14-17-14-12-12-12-12-11-11-11-11-9-9-11-7-/-|
||-0--0--0--0--0--0--0--0--0--0--0--0-0-0--0---|

repeat

guest
You may want to rate the tab now too:
select rating
Wanna post a correction for this tab? Suggest correction