Oops, an error
Loading. Please wait.
We have an official Vision Of Division tab made by UG professional guitarists. Check out the tab »
×
5,964 views 1 this week
2 commentsread comments
1 2 3 4 5
x 11
add to favorites
×
Save as Personal and add changes to this tab that will be seen only by you. Learn more ›
×
You can save this tab as Personal to edit and correct it or add notes. All changes will be seen only by you. Learn more »
launch autoscroll
font size
0
reset
guitar tuner
edit
Autoscroll
slow
fast
+/-
esc
set tempo
stop
The Strokes - Vision of Division
First Impression of Earth
Tuning:Standard
Tabbed by - Jason Deala
Awww yeah

INTRO
G|----------------------------|
D|----------------------------|
A|---7-7-----7-----7------7---| x 3
E|------7-10---7-10--7-10---7-|

PRE-VERSE
G|--------------------------------|
D|----------------5-5-5-5-9-9-9-9-|
A|-7-7-7-7-7-7-7-7----------------| x 2
E|--------------------------------|

G|--------------------------------|
D|----------------5-5-5-5-8-8-8-8-|
A|-7-7-7-7-7-7-7-7----------------| x 2
E|--------------------------------|

G|---------------------------------|
D|---------------------------------|
A|-6-6-6-6-6-6-6-6-3-3-3-3-3-3-3-3-|
E|---------------------------------|

VERSE
G|--------------------------------|
D|----------------5-5-5-5-9-9-9-9-|
A|-7-7-7-7-7-7-7-7----------------| x 2
E|--------------------------------|

G|--------------------------------|
D|----------------5-5-5-5-8-8-8-8-|
A|-7-7-7-7-7-7-7-7----------------| x 2
E|--------------------------------|

G|--------------------------------|
D|----------------3-3-3-3-3-3-3-3-|
A|-6-6-6-6-6-6-6-6----------------|
E|--------------------------------|

G|--------------------------------|
D|----------------5-5-5-5-9-9-9-9-|
A|-7-7-7-7-7-7-7-7----------------|
E|--------------------------------|

G|----------------------------------------------------------------|
D|-4-4-4-4-4-4-4-4-5-5-5-5-5-5-5-5--------------------------------|
A|--------------------------------3-3-3-3-3-3-3-3-5-5-5-5-5-5-5-5-| x 2
E|----------------------------------------------------------------|

PRE-CHORUS
G|------------------------------------------------------------------
D|-5-5-5-5-5-5-5-5-5------------------------------------------------
A|------------------3-3-3-3-3-3-3-3-2-2-2-2-2-2-2-2-2-2-2-2-2-2-2-2-
E|------------------------------------------------------------------

--------------------------------------------------------------------|
------------------7-7-7-7-7-7-7-7-7-4-4-4-4-4-4-4-4-4-4-4-4-4-4-4-4-|
---3-3-3-3-3-3-3-3--------------------------------------------------| x 2
--------------------------------------------------------------------|

CHORUS
G|--------------------------------|
D|----------------5-5-5-5-9-9-9-9-|
A|-7-7-7-7-7-7-7-7----------------| x 2
E|--------------------------------|

G|--------------------------------|
D|----------------5-5-5-5-8-8-8-8-|
A|-7-7-7-7-7-7-7-7----------------| x 2
E|--------------------------------|

G|---------------------------------|
D|---------------------------------|
A|-6-6-6-6-6-6-6-6-3-3-3-3-3-3-3-3-|
E|---------------------------------|

SOLO
G|-----------------|
D|-----------------|
A|-7-7-7-7-7-7-7-7-| x 4
E|-----------------|

G|----------------------------|
D|----------------------------|
A|---7-7-----7-----7------7---| x 6
E|------7-10--7-10--7-10---7--|

PRE-VERSE
G|--------------------------------|
D|----------------5-5-5-5-9-9-9-9-|
A|-7-7-7-7-7-7-7-7----------------| x 2
E|--------------------------------|

G|--------------------------------|
D|----------------5-5-5-5-8-8-8-8-|
A|-7-7-7-7-7-7-7-7----------------| x 2
E|--------------------------------|

G|---------------------------------|
D|---------------------------------|
A|-6-6-6-6-6-6-6-6-3-3-3-3-3-3-3-3-|
E|---------------------------------|

VERSE
G|--------------------------------|
D|----------------5-5-5-5-9-9-9-9-|
A|-7-7-7-7-7-7-7-7----------------| x 2
E|--------------------------------|

G|--------------------------------|
D|----------------5-5-5-5-8-8-8-8-|
A|-7-7-7-7-7-7-7-7----------------| x 2
E|--------------------------------|

G|--------------------------------|
D|----------------3-3-3-3-3-3-3-3-|
A|-6-6-6-6-6-6-6-6----------------|
E|--------------------------------|

G|--------------------------------|
D|----------------5-5-5-5-9-9-9-9-|
A|-7-7-7-7-7-7-7-7----------------|
E|--------------------------------|

G|----------------------------------------------------------------|
D|-4-4-4-4-4-4-4-4-5-5-5-5-5-5-5-5--------------------------------|
A|--------------------------------3-3-3-3-3-3-3-3-5-5-5-5-5-5-5-5-| x 2
E|----------------------------------------------------------------|

PRE-CHORUS
G|------------------------------------------------------------------
D|-5-5-5-5-5-5-5-5-5------------------------------------------------
A|------------------3-3-3-3-3-3-3-3-2-2-2-2-2-2-2-2-2-2-2-2-2-2-2-2-
E|------------------------------------------------------------------

--------------------------------------------------------------------|
------------------7-7-7-7-7-7-7-7-7-4-4-4-4-4-4-4-4-4-4-4-4-4-4-4-4-|
---3-3-3-3-3-3-3-3--------------------------------------------------| x 2
--------------------------------------------------------------------|

CHORUS
G|--------------------------------|
D|----------------5-5-5-5-9-9-9-9-|
A|-7-7-7-7-7-7-7-7----------------| x 2
E|--------------------------------|

G|--------------------------------|
D|----------------5-5-5-5-8-8-8-8-|
A|-7-7-7-7-7-7-7-7----------------| x 2
E|--------------------------------|

G|---------------------------------|
D|---------------------------------|
A|-6-6-6-6-6-6-6-6-3-3-3-3-3-3-3-3-|
E|---------------------------------|

END
G|----------------------------|
D|----------------------------|
A|---7-7-----7-----7------7---| x 4
E|------7-10---7-10--7-10---7-|

            
            
Suggest correction
Creating personal tab
Creating personal tab
You can edit any tab online and save it as your Personal.

You can edit, replace or remove any tab part or add personal notes – all changes will be seen only by you.

Personal tabs can be accessed anytime from any device, even offline.
Learn more »
comments
print report bad tab
2 comments total.
0 reply
squier2088 10 Feb 03, 2006 05:06 AM

yaaaaaaaaaacc

0 reply
therockdawg1138 50 Feb 03, 2006 11:05 AM

no

guest
You may want to rate the tab now too:
select rating
Wanna post a correction for this tab? Suggest correction