Oops, an error
Loading. Please wait.
We have an official Welcome To Japan tab made by UG professional guitarists. Check out the tab »
×
7,518 views 21 this week
4 commentsread comments
1 2 3 4 5
x 11
add to favorites
×
Save as Personal and add changes to this tab that will be seen only by you. Learn more ›
×
You can save this tab as Personal to edit and correct it or add notes. All changes will be seen only by you. Learn more »
launch autoscroll
font size
0
reset
guitar tuner
edit
Autoscroll
slow
fast
+/-
esc
set tempo
stop
Author
Difficulty
Welcome To Japan - The Strokes - from the album "Comedown Machine" (2013)
Tabbed by: Radagast27   http://www.youtube.com/user/Radagast27
E-mail: christopher.willett@gmail.com
Video here:  http://www.youtube.com/watch?v=5DFk6HXtvz8
Tuning: standard

Intro/Verse:
G|---------------------------------------------------------------------------|
D|---------------------------------------------------------------------------|
A|-5-5-5---5-5-5------------------------3-3-3--------------------------------|
E|-----------------4-4-4--3-3-3--3-3-3---------------------------------------|

G|---------------------------------------------------------------------------|
D|---------------------------------------------------------------------------|
A|-5-5-5---5-5-5-----------------------------3-------------------------------|
E|-----------------4-4-4--3-3-3--3-3-3----1----------------------------------|

G|---------------------------------------------------------------------------|
D|---------------------------------------------------------------------------|
A|-5-5-5---5-5-5------------------------3-3-3--------------------------------|
E|-----------------4-4-4--3-3-3--3-3-3---------------------------------------|

G|---------------------------------------------------------------------------|
D|---------------------------------------------------------------------------|
A|-5-5-5---5-5-5-----------------------------3-------------------------------|
E|-----------------4-4-4--3-3-3--3-3-3----1----------------------------------|

G|---------------------------------------------------------------------------|
D|---------------------------------------------------------------------------|
A|-5-5-5---5-5-5------------------------3-3-3--------------------------------|
E|-----------------4-4-4--3-3-3--3-3-3---------------------------------------|

G|---------------------------------------------------------------------------|
D|---------------------------------------------------------------------------|
A|-5-5-5---5-5-5-----------------------------3-------------------------------|
E|-----------------4-4-4--3-3-3--3-3-3----1----------------------------------|


Bridge (0:47):
G|---------------------------------------------------------------------------|
D|---------------------------------------------------------------------------|
A|-5-5-5---3-3-3---1-1-1-----------3-----------------------------------------|
E|--------------------------1-1-1--------------------------------------------|

G|---------------------------------------------------------------------------|
D|---------------------------------------------------------------------------|
A|-5-5-5---3-3-3---1-1-1-----------3-3-3-------------------------------------|
E|--------------------------1-1-1--------------------------------------------|


Chorus (1:02):
G|---------------------------------------------------------------------------|
D|---------------------------------------------------------------------------|
A|-10-----------3-------------8------------5---------------------------------|
E|---------------------------------------------------------------------------|

G|---------------------------------------------------------------------------|
D|---------------------------------------------------------------------------|
A|-10-----------3-------------8------------5---------------------------------|
E|---------------------------------------------------------------------------|


Verse 2 (1:18):
G|---------------------------------------------------------------------------|
D|---------------------------------------------------------------------------|
A|-5-5-5---5-5-5------------------------3-3-3--------------------------------|
E|-----------------4-4-4--3-3-3--3-3-3---------------------------------------|

G|---------------------------------------------------------------------------|
D|---------------------------------------------------------------------------|
A|-5-5-5---5-5-5-----------------------------3-------------------------------|
E|-----------------4-4-4--3-3-3--3-3-3----1----------------------------------|

G|---------------------------------------------------------------------------|
D|---------------------------------------------------------------------------|
A|-5-5-5---5-5-5------------------------3-3-3--------------------------------|
E|-----------------4-4-4--3-3-3--3-3-3---------------------------------------|

G|---------------------------------------------------------------------------|
D|---------------------------------------------------------------------------|
A|-5-5-5---5-5-5-----------------------------3-------------------------------|
E|-----------------4-4-4--3-3-3--3-3-3----1----------------------------------|


Bridge (1:48):
G|---------------------------------------------------------------------------|
D|---------------------------------------------------------------------------|
A|-5-5-5---3-3-3---1-1-1----------3--3---------------------------------------|
E|-------------------------1-1-1---------------------------------------------|

G|---------------------------------------------------------------------------|
D|-------------------------------3--2----------------------------------------|
A|-5-5-5---3-3-3---1-1-1-----------3--3--------------------------------------|
E|-------------------------1-1-1---------------------------------------------|


(2:04)(Improvise a bit, this is not exactly worked out yet)
G|---------------------------------------------------------------------------|
D|--------------------------------3------------------------------------------|
A|-5-5-5---3-3-3---1-1-1------------3----------------------------------------|
E|-------------------------1-1-1---------------------------------------------|

G|---------------------------------------------------------------------------|
D|-------5-3--------3-2---------3--2---7--5--3--2----------------------------|
A|-5-5-5------3-3-3------1-1-1-----------------------------------------------|
E|---------------------------------------------------------------------------|


Chorus (2:20):
G|---------------------------------------------------------------------------|
D|---------------------------------------------------------------------------|
A|-10-------------3-------------8-----------5--------------------------------|
E|---------------------------------------------------------------------------|

G|---------------------------------------------------------------------------|
D|---------------------------------------------------------------------------|
A|-10-------------3-------------8-----------5--------------------------------|
E|---------------------------------------------------------------------------|


Interlude (2:35):
G|---------------------------------------------------------------------------|
D|---------------3--2------------------3--2----------------------------------|
A|-5----3----1--------3-5----3-----1-----------3-----------------------------|
E|---------------------------------------------------------------------------|


Next part (2:51) (Improvise a bit, this is also not exactly worked out yet):
G|---------------------------------------------------------------------------|
D|----------------------------------3--2-------------------------------------|
A|-5-5-5----3-3-3----1-1-1------------3--3-----------------------------------|
E|---------------------------1-1-1-------------------------------------------|

G|---------------------------------------------------------------------------|
D|--------7--5---------3--2----------5--3---------3-2------------------------|
A|-5-5-5--------3-3-3---------1-1-1---------------------3--------------------|
E|-----------------------------------------1-1-1-----------------------------|


Outro (3:05):
G|---------------------------------------------------------------------------|
D|---------------------------------------------------------------------------|
A|-5-5-5-5--5-5-5-5--3-3-3-3--3-3-3-3--1-1-1-1--1-1-1-1----------------------|
E|---------------------------------------------------------------------------|

G|---------------------------------------------------------------------------|
D|-3-3-3-3--2-2-2-2----------------------------------------------------------|
A|-------------------5-5-5-5-5-5-5-5--3-3-3-3-3-3-3-3--1-1-1-1-1-1-1-1-------|
E|---------------------------------------------------------------------------|

G|---------------------------------------------------------------------------|
D|-3-3-3-3--2-2-2------------------------------------------------------------|
A|----------------3--5-5-5-5-5-5-5-5--7-7-7-7-7-7-7-7--8-8-8-8-8-8-8-8--8--8-|
E|------------------------------------------------------------------------8--|


(Something like that…I'm not entirely sure)
G|---------------------------------------------------------------------------|
D|---------10--12------------------------------------------------------------|
A|-10--12--------------------------------------------------------------------|
E|---------------------------------------------------------------------------|



| /  slide up
| \  slide down
| h  hammer-on
| p  pull-off
| ~  vibrato
| +  harmonic
| x  Mute note
===============================================================================
Suggest correction
Creating personal tab
Creating personal tab
You can edit any tab online and save it as your Personal.

You can edit, replace or remove any tab part or add personal notes – all changes will be seen only by you.

Personal tabs can be accessed anytime from any device, even offline.
Learn more »
comments
print report bad tab
4 comments total. Showing first comments.
0 reply
mahomy 126 Apr 12, 2013 03:26 PM

Perfect! one of my personal favorites, very groovey track. Good Job!

-1 reply
BassGirl7 262 Jun 22, 2015 02:44 PM

Lack of accuracy. It's very simplified and quite inaccurate. It's an interesting interpretation but not what is on the actually record - sorry!

0 reply
markusbrendon16 10 Feb 11, 2017 08:25 PM

Not bad, some parts seens a bit off, but is a good job anyway

guest
You may want to rate the tab now too:
select rating
Wanna post a correction for this tab? Suggest correction