Oops, an error
Loading. Please wait.

What Ever Happened Tab

version 1
version 1

Whole song

Interactive

44,043 views 30 this week
4 commentsread comments
1 2 3 4 5
x 6
add to favorites
launch autoscroll
font size
0
reset
how to read this tab
guitar tuner
backing track
0:00
0:00
×
Best way to learn
"What Ever Happened"
Autoscroll
slow
fast
+/-
esc
set tempo
stop
Author
[Chorus]
e|---------------------------|
B|-------9-----5-----9-------|
G|-8-----9-----6-----9-------|
D|-9-----9-x16-6-x16-9-x16---| (x2)
A|-9-x16-7-----4-----7-------| 
E|-7-------------------------|

e|---------|
B|-8-------|
G|-9-------|
D|-9-x32---|
A|-7-------|
E|---------|

(Gtr 1)
e|-------------------------------|
B|-9--------------9--------------|
G|--8-11--8---------8----11-8----|
D|----------11-9------9-------9--| (x2)
A|-------------------------------|
E|-------------------------------|
 
e|-------------------------------|
B|-12-9-11---/14-11-11/12--11-9--|
G|---8-8--------8--8-------------|
D|-------------------------------| (x2)
A|-------------------------------|
E|-------------------------------|

(Gtr 2)
e|------------------------------------------|
B|-----------999-----------------999--------|
G|-888-88888-999-88888-888-88888-999-88888--|
D|-999-88888-999-99999-999-88888-999-99999--| (x2)
A|-999-99999-----99999-999-99999-----99999--|
E|------------------------------------------|

(Gtr 1)
e|------------------------------------------|
B|-----------555-44444-----------555-44444--|
G|-444-33333-666-44444-444-33333-666-44444--|
D|-444-44444-666-44444-444-44444-666-44444--| (x2)
A|-222-22222-444-------222-22222-444--------|
E|------------------------------------------|

(Gtr 2)
e|------------------------------------------|
B|-----------999-----------------999--------|
G|-888-88888-999-88888-888-88888-999-88888--|
D|-999-88888-999-99999-999-88888-999-99999--| (x2)
A|-999-99999-----99999-999-99999-----99999--|
E|------------------------------------------|

e|-------------------|
B|-------------------|
G|-444-333333333333--|
D|-444-444444444444--|
A|-222-222222222222--|
E|-------------------|
 
e|---------------------|
B|-------9-------------|
G|-8-----9-x32---------|
D|-9-x16--------6-x32--|
A|---------------------|
E|---------------------|


************************************

| x  Dead note
| /  Slide up

************************************
Suggest correction
comments
print report bad tab
4 comments total. Showing first comments.
0 reply
TomSk 327 Nov 23, 2003 07:00 PM

Intro?

C Am
I wanna be forgotten, and i don't wanna be reminded

0 reply
TomSk 327 Nov 23, 2003 07:00 PM

No, forget that..... before the solo its an E chord tho.

0 reply
charliejoe7 10 Apr 04, 2006 11:53 AM

This is the best tab here for this song....

guest
You may want to rate the tab now too:
select rating
Wanna post a correction for this tab? Suggest correction