Oops, an error
Loading. Please wait.

You Only Live Once Tab

version 1
version 1
624,286 views 318 this week
37 commentsread comments
1 2 3 4 5
excellent!
x 136
add to favorites
launch autoscroll
font size
0
reset
how to read this tab
guitar tuner
Tab Pro tools
  • play this tab
  • loop segment
  • change instrument
  • show fretboard
  • metronome
×
Best way to learn
"You Only Live Once"
Autoscroll
slow
fast
+/-
esc
set tempo
stop
Artist: The Strokes
Title: You Only Live Once
Tabbed By: Uriel  Mera.M   (mexico city)

Guitar 1

[Intro]

 (palm-muted)       x 4
E||-----------------------|
B||-----------------------|
G||-----------------------|
D||--9--9-9--9-9-9-9-9-9--|
A||--7--7-7--7-7-7-7-7-7--|
E||-----------------------|

 (palm-muted)                                                           
E||----------------------------------------------------|
B||----------------------------------------------------|
G||----------------------------------------------------|
D||--9--9-9-9-9-9-9-9-9--9--9-9-9-9-9-9-9-9------------|
A||--7--7-7-7-7-7-7-7-7--7--7-7-7-7-7-7-7-7------------|
E||----------------------------------------------------|
                                                        (x2)
E||----------------------------------------------------|
B||----------------------------------------------------|
G||----------------------------------------------------|
D||----------------------11--11-11--11-11-11-11-11-11--|
A||--9--9-9-9-9-9-9-9-9---9---9--9---9--9--9--9--9--9--|
E||--7--7-7-7-7-7-7-7-7--------------------------------|


[Verse]

        x 16       x 8          x 8
E||---------|---------|------------|
B||---------|---------|------------|    
G||---------|---------|------------|(x 4)
D||--9-9-9--|---------|--11-11-11--|
A||--7-7-7--|--9-9-9--|---9--9--9--|
E||---------|--7-7-7--|------------|


[Chorus and Solo]

                                    x 4
E||--9-9---7--11--9---|--7-7--6--9---7--|
B||--9-9---9--12--11--|--7-7--7--11--9--|
G||--9-9---9--13--11--|--8-8--8--11--9--|
D||-11-11--9--13--11--|--9-9--8--11--9--|
A||-11-11--7--11--9---|--9-9--6--9---7--|
E||--9-9---7--11------|--7-7--6---------|

 (palm-muted)                                                           
E||----------------------------------------------------|
B||----------------------------------------------------|
G||----------------------------------------------------|
D||--9--9-9-9-9-9-9-9-9--9--9-9-9-9-9-9-9-9------------|
A||--7--7-7-7-7-7-7-7-7--7--7-7-7-7-7-7-7-7------------|
E||----------------------------------------------------|
                                                        (x2)
E||----------------------------------------------------|
B||----------------------------------------------------|
G||----------------------------------------------------|
D||----------------------11--11-11--11-11-11-11-11-11--|
A||--9--9-9-9-9-9-9-9-9---9---9--9---9--9--9--9--9--9--|
E||--7--7-7-7-7-7-7-7-7--------------------------------|


[Verse]

        x 16       x 8          x 8
E||---------|---------|------------|
B||---------|---------|------------|    
G||---------|---------|------------|(x 4)
D||--9-9-9--|---------|--11-11-11--|
A||--7-7-7--|--9-9-9--|---9--9--9--|
E||---------|--7-7-7--|------------|


[Chorus and Solo]

                                     x 4
E||--9-9---7--11--9---|--7-7--6--9---7--|
B||--9-9---9--12--11--|--7-7--7--11--9--|
G||--9-9---9--13--11--|--8-8--8--11--9--|
D||-11-11--9--13--11--|--9-9--8--11--9--|
A||-11-11--7--11--9---|--9-9--6--9---7--|
E||--9-9---7--11------|--7-7--6---------|

In ends up. Guitar 1 x 5
E||--7--x--7-7-x-x------|--7--|
B||--7--x--7-7-x-x------|--7--|
G||--8--x--8-8-x-x------|--8--|
D||--9--x--9-9-x-x------|--9--|
A||---------------------|-----|
E||---------------------|-----|


Guitar 2

[Intro] 
                                              
E||--9-9-9-9-9--7--7--7-7--7---9-9-9-9-9--6--6--6-6--6--|
B||--9-9-9-9-9--9--9--9-9--9---7-7-7-7-7--7--7--7-7--7--|
G||--9-9-9-9-9--9--9--9-9--9---8-8-8-8-8--6--6--6-6--6--|
D||-----------------------------------------------------| x2
A||-----------------------------------------------------|
E||-----------------------------------------------------|


[Verse]

E||--9-9-9-9-9--7--7--7-7--7---9-9-9-9-9---------------------|
B||--9-9-9-9-9--9--9--9-9--9---7-7-7-7-7--11--11--11-12--11--|
G||--9-9-9-9-9--9--9--9-9--9---8-8-8-8-8--11--11--11-13--11--|
D||---------------------------------------11--11--11-11--11--|
A||----------------------------------------------------------|
E||----------------------------------------------------------|

E||--9-9-9-9-9--7--7--7-7--7---9-9-9-9-9--6--6--6-6--6--|
B||--9-9-9-9-9--9--9--9-9--9---7-7-7-7-7--7--7--7-7--7--|
G||--9-9-9-9-9--9--9--9-9--9---8-8-8-8-8--6--6--6-6--6--|
D||-----------------------------------------------------|
A||-----------------------------------------------------|
E||-----------------------------------------------------|

E||--9-9-9-9-9--7--7--7-11-11-9---9-9-9-9-9--6--6-------14--------|
B||--9-9-9-9-9--9--9--9-9--9--9---7-7-7-7-7--7--7--7/11----14-11--|
G||--9-9-9-9-9--9--9--9-9--9--9---8-8-8-8-8--6--6-----------------|
D||---------------------------------------------------------------|
A||---------------------------------------------------------------|
E||---------------------------------------------------------------|

E||--9-9-9-9-9--7--7--7-7--7---9-9-9-9-9--6--6--6-6--6--|
B||--9-9-9-9-9--9--9--9-9--9---7-7-7-7-7--7--7--7-7--7--|
G||--9-9-9-9-9--9--9--9-9--9---8-8-8-8-8--6--6--6-6--6--|
D||-----------------------------------------------------|
A||-----------------------------------------------------|
E||-----------------------------------------------------|


[Chorus]
                                                    
E||--4/7/11/9-----------------|--2/6/9-/7-----------------|
B||--5/9/12/11--11-11/10/9/2--|--4/7/11/9--9-9-9-9/8/7/2--|
G||--6/9/13/11--11-11/10/9/2--|--4/8/11/9—-9-9-9-9/8/7/2--|   x 2
D||---------------------------|---------------------------|     
A||---------------------------|---------------------------|      
E||---------------------------|---------------------------|


[Solo]

E||--------------------------------------------------|
B||--12b(15)r12-11------7----------------------------|
G||-----------------13—-9b(11)(11)-9-----------------|
D||----------------------------------9-9/13-13-11-9--|
A||--------------------------------------------------|
E||--------------------------------------------------|

E||--11--9-------------------------------------------|
B||--------11b(12)11---9-----------------------------|
G||-------------------11b(13)(13)11------------------|
D||---------------------------------9-9/14-14-13-9---|
A||--------------------------------------------------|
E||--------------------------------------------------|

E||--12--11--------------------12-----12-----9---11-11-9------------|
B||---------14—10b(11)10--10-14--14-12--12-11-11---------12--11-/5--|
G||-----------------------------------------------------------------|
D||-----------------------------------------------------------------|
A||-----------------------------------------------------------------|
E||-----------------------------------------------------------------|


Again the Intro


[Instrumental]

 (palm-muted)       x 4
E||-----------------------|
B||-----------------------|
G||-----------------------|
D||--9--9-9--9-9-9-9-9-9--|
A||--7--7-7--7-7-7-7-7-7--|
E||-----------------------|

 (palm-muted)                                                           
E||----------------------------------------------------|
B||----------------------------------------------------|
G||----------------------------------------------------|
D||--9--9-9-9-9-9-9-9-9--9--9-9-9-9-9-9-9-9------------|
A||--7--7-7-7-7-7-7-7-7--7--7-7-7-7-7-7-7-7------------|
E||----------------------------------------------------|
                                                        (x2)
E||----------------------------------------------------|
B||----------------------------------------------------|
G||----------------------------------------------------|
D||----------------------11--11-11--11-11-11-11-11-11--|
A||--9--9-9-9-9-9-9-9-9---9---9--9---9--9--9--9--9--9--|
E||--7--7-7-7-7-7-7-7-7--------------------------------|


Again the Verse and the Chorus

[Verse]

E||--9-9-9-9-9--7--7--7-7--7---9-9-9-9-9---------------------|
B||--9-9-9-9-9--9--9--9-9--9---7-7-7-7-7--11--11--11-12--11--|
G||--9-9-9-9-9--9--9--9-9--9---8-8-8-8-8--11--11--11-13--11--|
D||---------------------------------------11--11--11-11--11--|
A||----------------------------------------------------------|
E||----------------------------------------------------------|

E||--9-9-9-9-9--7--7--7-7--7---9-9-9-9-9--6--6--6-6--6--|
B||--9-9-9-9-9--9--9--9-9--9---7-7-7-7-7--7--7--7-7--7--|
G||--9-9-9-9-9--9--9--9-9--9---8-8-8-8-8--6--6--6-6--6--|
D||-----------------------------------------------------|
A||-----------------------------------------------------|
E||-----------------------------------------------------|

E||--9-9-9-9-9--7--7--7-11-11-9---9-9-9-9-9--6--6-------14--------|
B||--9-9-9-9-9--9--9--9-9--9--9---7-7-7-7-7--7--7--7/11----14-11--|
G||--9-9-9-9-9--9--9--9-9--9--9---8-8-8-8-8--6--6-----------------|
D||---------------------------------------------------------------|
A||---------------------------------------------------------------|
E||---------------------------------------------------------------|

E||--9-9-9-9-9--7--7--7-7--7---9-9-9-9-9--6--6--6-6--6--|
B||--9-9-9-9-9--9--9--9-9--9---7-7-7-7-7--7--7--7-7--7--|
G||--9-9-9-9-9--9--9--9-9--9---8-8-8-8-8--6--6--6-6--6--|
D||-----------------------------------------------------|
A||-----------------------------------------------------|
E||-----------------------------------------------------|


[Chorus]
                                                    
E||--4/7/11/9-----------------|--2/6/9-/7-----------------|
B||--5/9/12/11--11-11/10/9/2--|--4/7/11/9--9-9-9-9/8/7/2--|
G||--6/9/13/11--11-11/10/9/2--|--4/8/11/9—-9-9-9-9/8/7/2--|   x 2
D||---------------------------|---------------------------|     
A||---------------------------|---------------------------|      
E||---------------------------|---------------------------|


[Solo]

E||--------------------------------------------------|
B||--12b(15)r12-11------7----------------------------|
G||-----------------13—-9b(11)(11)-9-----------------|
D||----------------------------------9-9/13-13-11-9--|
A||--------------------------------------------------|
E||--------------------------------------------------|

E||--11--9-------------------------------------------|
B||--------11b(12)11---9-----------------------------|
G||-------------------11b(13)(13)11------------------|
D||---------------------------------9-9/14-14-13-9---|
A||--------------------------------------------------|
E||--------------------------------------------------|

E||--12--11--------------------12-----12-----9---11--9-----------------------------------|
B||---------14—10b(11)10--10-14--14-12--12-11-11-------12--11---9------------------------|
G||------------------------------------------------------------11b(13)13-11--------------|
D||-------------------------------------------------------------------------9-9/14-14-13-|
A||--------------------------------------------------------------------------------------|
E||--------------------------------------------------------------------------------------|

It ends up.Guitar 2 x23
E||----11------11------|--11--|
B||--------12------12--|--12--|
G||--11--11--11--11----|--11--|
D||--------------------|------|
A||--------------------|------|
E||--------------------|------|



***************************************
|/     Slide
|b()   Bend up to note in  parentheses
***************************************


That is everything.
Any comment or suggestion please write to
Volov7@yahoo.com.mx
comments
print report bad tab
37 comments total. Showing first comments.
+2 reply
MarcW wrote on December 4 2005, 11:01 am

great

+1 reply
skater_guy wrote on December 19 2005, 09:06 pm

thank you anonymous!

0 reply
bluefridays wrote on January 4 2006, 05:51 am

very good tab!

I want to post or [tab]
guest
You may want to rate the tab now too:
select rating
Please do not post tabs as comments. Select "correction" instead!