Oops, an error
Loading. Please wait.

End Of An Era Chords

79 views 1 this week
no commentswrite comment
1 2 3 4 5
3 more votes to show rating
add to favorites
launch autoscroll
font size
0
reset
transpose
0
reset
display chords
guitar tuner
Autoscroll
slow
fast
+/-
esc
set tempo
stop
Help us to improve Ultimate-Guitar.com Take our survey!
×
Author
Difficulty
novice
    G  Am Em C  D
E|--3--0--0--0--2--
B|--0--1--0--1--3--
G|--0--2--0--0--2--
D|--0--2--2--2--0--
A|--2--0--2--3-----
E|--3-----0--3-----



[Intro]

G Am Em C   2x

E|---------------------------------------3----3----3----3-----------3----3----3----3--------
B|----------3-3-3-3---------5-5-5-5---3h5--3h5--3h5--3h5---3--3--3h5--3h5--3h5--3h5---3--3--
G|--4-4-4-4---------4-4-4-4-----------------------------------------------------------------  2x
D|------------------------------------------------------------------------------------------
A|------------------------------------------------------------------------------------------
E|------------------------------------------------------------------------------------------


[Chorus]

            G          Am  Em      C
Cause it's love at the end of an era
            G          Am Em      C
Cause it's love at the end of an era


[Verse 1]

        Em
We can wait
      C            G
It's what they wanted
        Em
We can fight fight fight
        C        G
But the war is done

       Em
And I fall 
     C         G
From holy mountains
         Em
And I'll dance
        C        G
Til the morning comes


[Bridge]

D
On and on it comes and goes
D
It comes and goes again


[Chorus]

            G              Am Em   C
Cause it's love at the end of an era
            G              Am Em   C
Cause it's love at the end of an era
G            Am              Em
Wait for the light for the light 
                  C
At the end of an era
            G              Am Em   C
Cause it's love at the end of an era


[Verse 2]

        Em
We can break 
    C            G
But no one will save us
        Em
We can build build build
    C              G
Or set it all on fire

         Em
And I'll fall 
          C         G
From the highest mountain
          Em
And I'll wait
        C           G
Or leave it all the same


[Bridge]

D
On and on it comes and goes
D
It comes and goes again


[Chorus]

G            Am Em     C
Love at the end of an era
           G            Am Em     C
Cause it's love at the end of an era
G            Am              Em
Wait for the light for the light 
                  C
At the end of an era
G            Am              Em
Wait for the light for the light 
                  C
At the end of an era


[Verse 3]

Em   Am Am   G   (Am staccato)


In this life
We keep moving

Em   Am Am   G   (Am staccato)


In this life
We keep moving


[Chorus]

G           Am  Em     C
Love at the end of an era
            G          Am  Em     C
Cause it's love at the end of an era 

Suggest correction
Give kudos to tab author, rate the tab!
1 2 3 4 5
comments
print report bad tab
guest
You may want to rate the tab now too:
select rating
Wanna post a correction for this tab? Suggest correction