Oops, an error
Loading. Please wait.

My Machine Tab

13 views 1 this week
no commentswrite comment
1 2 3 4 5
3 more votes to show rating
add to favorites
launch autoscroll
font size
0
reset
how to read this tab
guitar tuner
Autoscroll
slow
fast
+/-
esc
set tempo
stop
Help us to improve Ultimate-Guitar.com Take our survey!
×
Author
Difficulty
intermediate
                               /// My Machine by The Struts ///

Tabbed by Izach Prince Paul

All the verses are Palm Muted.

[Verse 1] (Time 0:11 - 0:23)

    E
e|-------|
B|-------|
G|--9----|
D|--9----|
A|--7----|
E|-------|
pm  .



[Verse 2] (Time 0:24 - 0:35)

    E
e|-------|
B|-------|
G|--9----|
D|--9----|
A|--7----|
E|-------|
pm  .

[PreChorus 1] (Time 0:36 - 0:45)
    Ab      A       Ab      A       Ab
e|-------|-------|-------|-------|-------|
B|-------|-------|-------|-------|-------|
G|-------|-------|-------|-------|-------|
D|--6----|--7----|--6----|--7----|--6----|
A|--6----|--7----|--6----|--7----|--6----| x1
E|--4----|--5----|--4----|--5----|--4----|
    A       Ab      A       Ab      A       Ab
e|-------|-------|-------|-------|-------|-------|
B|-------|-------|-------|-------|-------|-------|
G|-------|-------|-------|-------|-------|-------|
D|--7----|--6----|--7----|--6----|--7----|--6----|
A|--7----|--6----|--7----|--6----|--7----|--6----| x1
E|--5----|--4----|--5----|--4----|--5----|--4----|
    A       Ab      A       Db      A       Ab
e|-------|-------|-------|-------|-------|-------|
B|-------|-------|-------|-------|-------|-------|
G|-------|-------|-------|--6----|-------|-------|
D|--7----|--6----|--7----|--6----|--7----|--6----|
A|--7----|--6----|--7----|--4----|--7----|--6----| x1
E|--5----|--4----|--5----|-------|--5----|--4----|

    A       Ab      A       Ab
E|-------|-------|-------|-------|
B|-------|-------|-------|-------|
G|-------|-------|-------|-------|
D|--7----|--6----|--7----|--6----|
A|--7----|--6----|--7----|--6----| x1
E|--5----|--4----|--5----|--4----|
    A       Ab      A
E|-------|-------|-------|
B|-------|-------|-------|
G|-------|-------|-------|
D|--7----|--6----|--7----|
A|--7----|--6----|--7----| x1
E|--5----|--4----|--5----|
    A       A       A       A
e|-------|-------|-------|-------|
B|-------|-------|-------|-------|
G|-------|-------|-------|-------|
D|--7----|--7----|--7----|--7----|
A|--7----|--7----|--7----|--7----| x1
E|--5----|--5----|--5----|--5----|
    C       C       C       C
e|-------|-------|-------|-------|
B|-------|-------|-------|-------|
G|--5----|--5----|--5----|--5----|
D|--5----|--3----|--3----|--3----|
A|--3----|--3----|--3----|--3----| x1
E|-------|-------|-------|-------|

[Chorus 1] (Time 0:46 - 1:10)
I'm gonna go for a ride,I'm gonna get outside
    G
e|-------|
B|-------|
G|-------|
D|--5----|
A|--5----|
E|--3----|

I'm gonna feel that grease, Gonna slip inside
    Am
e|-------|
B|--1----|
G|--2----|
D|--2----|
A|-------|
E|-------|

Can you hear her scream
    Bb
e|-------|
B|-------|
G|-------|
D|--8----|
A|--8----|
E|--6----|

She's my      machine
    C            G
e|-------|   e|-------|
B|-------|   B|-------|
G|--5----|   G|-------|
D|--5----|   D|--5----|
A|--3----|   A|--5----|
E|-------|   E|--3----|

I wanna make her new, And paint her baby blue
    G
e|-------|
B|-------|
G|-------|
D|--5----|
A|--5----|
E|--3----|

I'm gonna get inside, Put the choke on you
    Am
e|-------|
B|--1----|
G|--2----|
D|--2----|
A|-------|
E|-------|

Can you hear her scream
    Bb
e|-------|
B|-------|
G|-------|
D|--8----|
A|--8----|
E|--6----|

She's my      machine
    C            G
e|-------|   e|-------|
B|-------|   B|-------|
G|--5----|   G|-------|
D|--5----|   D|--5----|
A|--3----|   A|--5----|
E|-------|   E|--3----|

[Interlude 1] (Time 1:11 - 1:13)

e|-------|-------|-------|-----------------|
B|-------|-------|-------|-----------------|
G|--9----|--9----|--9----|--------7---7-9--|
D|----9--|----8--|----7--|--7-8-9---9------|
A|-------|-------|-------|-----------------|
E|-------|-------|-------|-----------------|

[Verse 3] (Time 1:14 - 1:19)

    E
e|-------|
B|-------|
G|--9----|
D|--9----|
A|--7----|
E|-------|
pm  .

[Verse 4] (Time 1:20 - 1:25)

    E
e|-------|
B|-------|
G|--9----|
D|--9----|
A|--7----|
E|-------|
pm  .

[PreChorus 2] (Time 1:26 - 1:35)
    Ab      A       Ab      A       Ab
e|-------|-------|-------|-------|-------|
B|-------|-------|-------|-------|-------|
G|-------|-------|-------|-------|-------|
D|--6----|--7----|--6----|--7----|--6----|
A|--6----|--7----|--6----|--7----|--6----| x1
E|--4----|--5----|--4----|--5----|--4----|
    A       Ab      A       Ab      A       Ab
e|-------|-------|-------|-------|-------|-------|
B|-------|-------|-------|-------|-------|-------|
G|-------|-------|-------|-------|-------|-------|
D|--7----|--6----|--7----|--6----|--7----|--6----|
A|--7----|--6----|--7----|--6----|--7----|--6----| x1
E|--5----|--4----|--5----|--4----|--5----|--4----|
    A       Ab      A       Db      A       Ab
e|-------|-------|-------|-------|-------|-------|
B|-------|-------|-------|-------|-------|-------|
G|-------|-------|-------|--6----|-------|-------|
D|--7----|--6----|--7----|--6----|--7----|--6----|
A|--7----|--6----|--7----|--4----|--7----|--6----| x1
E|--5----|--4----|--5----|-------|--5----|--4----|

    A       Ab      A       Ab
E|-------|-------|-------|-------|
B|-------|-------|-------|-------|
G|-------|-------|-------|-------|
D|--7----|--6----|--7----|--6----|
A|--7----|--6----|--7----|--6----| x1
E|--5----|--4----|--5----|--4----|
    A       Ab      A
E|-------|-------|-------|
B|-------|-------|-------|
G|-------|-------|-------|
D|--7----|--6----|--7----|
A|--7----|--6----|--7----| x1
E|--5----|--4----|--5----|
    A       A       A       A
e|-------|-------|-------|-------|
B|-------|-------|-------|-------|
G|-------|-------|-------|-------|
D|--7----|--7----|--7----|--7----|
A|--7----|--7----|--7----|--7----| x1
E|--5----|--5----|--5----|--5----|
    C       C       C       C
e|-------|-------|-------|-------|
B|-------|-------|-------|-------|
G|--5----|--5----|--5----|--5----|
D|--5----|--3----|--3----|--3----|
A|--3----|--3----|--3----|--3----| x1
E|-------|-------|-------|-------|

[Chorus 2] (Time 1:36 - 2:00)
I'm gonna go for a ride,I'm gonna get outside
    G
e|-------|
B|-------|
G|-------|
D|--5----|
A|--5----|
E|--3----|

I'm gonna feel that grease, Gonna slip inside
    Am
e|-------|
B|--1----|
G|--2----|
D|--2----|
A|-------|
E|-------|

Can you hear her scream
    Bb
e|-------|
B|-------|
G|-------|
D|--8----|
A|--8----|
E|--6----|

She's my      machine
    C            G
e|-------|   e|-------|
B|-------|   B|-------|
G|--5----|   G|-------|
D|--5----|   D|--5----|
A|--3----|   A|--5----|
E|-------|   E|--3----|

I wanna make her new, And paint her baby blue
    G
e|-------|
B|-------|
G|-------|
D|--5----|
A|--5----|
E|--3----|

I'm gonna get inside, Put the choke on you
    Am
e|-------|
B|--1----|
G|--2----|
D|--2----|
A|-------|
E|-------|

Can you hear her scream
    Bb
e|-------|
B|-------|
G|-------|
D|--8----|
A|--8----|
E|--6----|

She's my      machine
    C            G
e|-------|   e|-------|
B|-------|   B|-------|
G|--5----|   G|-------|
D|--5----|   D|--5----|
A|--3----|   A|--5----|
E|-------|   E|--3----|

[Interlude 2] (Time 2:01 - 2:16)

e|-------|-------|-------|-----------------|
B|-------|-------|-------|-----------------|
G|--9----|--9----|--9----|--------7---7-9--|
D|----9--|----8--|----7--|--7-8-9---9------|
A|-------|-------|-------|-----------------| x1
E|-------|-------|-------|-----------------|
    A            D
e|-------|   e|-------|
B|-------|   B|-------|
G|-------|   G|--7----|
D|--7----|   D|--7----|
A|--7----|   A|--5----| x1
E|--5----|   E|-------|

    Bm           E
e|-------|   e|-------|
B|--3----|   B|-------|
G|--4----|   G|--5----|
D|--4----|   D|--5----|
A|--2----|   A|--7----| x1
E|-------|   E|-------|

    Db           F#
e|-------|   e|-------|
B|-------|   B|--7----|
G|--6----|   G|--6----|
D|--6----|   D|--4----|
A|--4----|   A|-------| x1
E|-------|   E|-------|

    Ebm          Abm
e|-------|   e|-------|
B|-------|   B|--9----|
G|--8----|   G|--8----|
D|--8----|   D|--6----|
A|--6----|   A|-------| x1
E|-------|   E|-------|
 
    F            Bb
e|-------|   e|-------|
B|-------|   B|--11---|
G|--10---|   G|--10---|
D|--10---|   D|--8----|
A|--8----|   A|-------| x1
E|-------|   E|-------|

    G            C            C            C           C
e|-------|   e|-------|   e|-------|   e|-------|  e|-------|
B|-------|   B|--13---|   B|--13---|   B|--13---|  B|--13---|
G|--12---|   G|--12---|   G|--12---|   G|--12---|  G|--12---|
D|--12---|   D|--10---|   D|--10---|   D|--10---|  D|--10---|
A|--10---|   A|-------|   A|-------|   A|-------|  A|-------| x1
E|-------|   E|-------|   E|-------|   E|-------|  E|-------|

[Chorus 3] (Time 2:17 - 2:51)

I'm gonna go for a ride,I'm gonna get outside
    G
e|-------|
B|-------|
G|-------|
D|--5----|
A|--5----|
E|--3----|

I'm gonna feel that grease, Gonna slip inside
    D
e|-------|
B|-------|
G|--7----|
D|--7----|
A|--5----|
E|-------|

Can you hear her scream, she's my..
    F
e|-------|
B|-------|
G|-------|
D|--3----|
A|--3----|
E|--1----|

  machine
    C            
e|-------|   
B|-------|   
G|--5----|   
D|--5----|   
A|--3----|   
E|-------| 

I wanna make her new, And paint her baby blue
    G
e|-------|
B|-------|
G|-------|
D|--5----|
A|--5----|
E|--3----|

I'm gonna get inside, Put the choke on you
    Am
e|-------|
B|--1----|
G|--2----|
D|--2----|
A|-------|
E|-------|

Can you hear her scream
    Bb
e|-------|
B|-------|
G|-------|
D|--8----|
A|--8----|
E|--6----|

She's my      machine
    C            G
e|-------|   e|-------|
B|-------|   B|-------|
G|--5----|   G|-------|
D|--5----|   D|--5----|
A|--3----|   A|--5----|
E|-------|   E|--3----|

Can you hear her scream
    Bb
e|-------|
B|-------|
G|-------|
D|--8----|
A|--8----|
E|--6----|

She's my      machine
    C            G
e|-------|   e|-------|
B|-------|   B|-------|
G|--5----|   G|-------|
D|--5----|   D|--5----|
A|--3----|   A|--5----|
E|-------|   E|--3----|

Can you hear her scream
    Bb
e|-------|
B|-------|
G|-------|
D|--8----|
A|--8----|
E|--6----|

She's my machine
    C           
e|-------|  
B|-------|   
G|--5----|   
D|--5----|  
A|--3----|   
E|-------|   

[Outro] (Time 2:52 - 3:00)

    A            D
e|-------|   e|-------|
B|-------|   B|-------|
G|-------|   G|--7----|
D|--7----|   D|--7----|
A|--7----|   A|--5----|
E|--5----|   E|-------|

    Bm           E
e|-------|   e|-------|
B|--3----|   B|-------|
G|--4----|   G|--5----|
D|--4----|   D|--5----|
A|--2----|   A|--7----|
E|-------|   E|-------|

    Db           F#
e|-------|   e|-------|
B|-------|   B|--7----|
G|--6----|   G|--6----|
D|--6----|   D|--4----|
A|--4----|   A|-------|
E|-------|   E|-------|

    Ebm          Abm
e|-------|   e|-------|
B|-------|   B|--9----|
G|--8----|   G|--8----|
D|--8----|   D|--6----|
A|--6----|   A|-------|
E|-------|   E|-------|
 
    F            Bb
e|-------|   e|-------|
B|-------|   B|--11---|
G|--10---|   G|--10---|
D|--10---|   D|--8----|
A|--8----|   A|-------|
E|-------|   E|-------|

    G            C          
e|-------|   e|-------|   
B|-------|   B|--13---|   
G|--12---|   G|--12---|   
D|--12---|   D|--10---|   
A|--10---|   A|-------|   
E|-------|   E|-------|  


************************************

| PM  Palm mute

************************************
Suggest correction
Give kudos to tab author, rate the tab!
1 2 3 4 5
comments
print report bad tab
guest
You may want to rate the tab now too:
select rating
Wanna post a correction for this tab? Suggest correction