Oops, an error
Loading. Please wait.

Scumbag City tab

4,592 views 24 this week
3 commentsread comments
1 2 3 4 5
x 5
add to favorites
×
Save as Personal and add changes to this tab that will be seen only by you. Learn more ›
×
You can save this tab as Personal to edit and correct it or add notes. All changes will be seen only by you. Learn more »
launch autoscroll
font size
0
reset
how to read this tab
guitar tuner
edit
Autoscroll
slow
fast
+/-
esc
set tempo
stop
Author
[Intro]
   1   2     3   4 1  2    3   4
e|-10--10-9--7----|7--7-9--10----|
B|-10--10-10-8----|8--8-10-10----|
G|-11--11-9--7----|7--7-9--11----|
D|----------------|--------------|
A|----------------|--------------|
E|----------------|--------------|

[Verse]
(With intro chords)
There's empty cans on River Street, scumbag city blues
Sunday morning's indiscrete, Saturday left clues
Last night's claps and filthy slaps need oh no excuse
Are you cutting out or holding back a loop hole or a noose

[Pre-Chorus]
       A              A
Get me out, oh get me out
          G               G
Cause I'm here to bruise
          A              A
Oh get me out, oh get me out
        G             G
Of this scumbag city

[Chorus]
e|-------------------|
B|-------------------|
G|-5-4---------------|   (x4)
D|-------3h4---------|
A|-----5-----2-3-----|
E|-------------------|

Scumbag city blues, scumbag city blues

[Main Riff]
e|-------------------|-------------------|
B|-------------------|-----------6b7-----|
G|-5-4---------------|-5-4---------------|
D|-------3h4---------|-------3h4---------|
A|-----5-----2-3-----|-----5-------------|
E|-------------------|-------------------|

[Verse]
[Main Riff]
e|-------------------|-------------------|
B|-------------------|-----------6b7-----|
G|-5-4---------------|-5-4---------------|
D|-------3h4---------|-------3h4---------|
A|-----5-----2-3-----|-----5-------------|
E|-------------------|-------------------|

Just another howling wolf on the killing floor below
Oh no lie you'll find in the first line I should have quit you long ago
All those angel eyes with the red neck ties wanna see me fall on my face
And no lie you'll find I despise everything about this place

[Pre-chorus]
       A              A
Get me out, oh get me out
         G               G
Cause I'm here to bruise
          A              A
Oh get me out, oh get me out
       G             G
Of this scumbag city

[Chorus]
e|-------------------|-------------------|
B|-------------------|-----------6b7-----|
G|-5-4---------------|-5-4---------------|
D|-------3h4---------|-------3h4---------|  (x2)
A|-----5-----2-3-----|-----5-------------|
E|-------------------|-------------------|

Scumbag city blues, scumbag city blues

[Solo]
                A 
And when you're lying in your hotel,
        A
Thinking "good riddance to that"
     G                                       G
Well something creeps inside you yeah honey oh something pulls you back
    A                                          A
But it ain't the one way system that's got you uh coming back around no
G                                             G
It's all those friends and family keeping the size eights on the ground

[Outro]
  1   2     3   4 1  2    3   4
e|-10--10-9--7----|7--7-9--10----|
B|-10--10-10-8----|8--8-10-10----|
G|-11--11-9--7----|7--7-9--11----|
D|----------------|--------------|
A|----------------|--------------|
E|----------------|--------------|

There's empty cans on River Street, scumbag city blues
Sunday morning feels complete,
When I get back to you
I could skip and give a miss,
That I'd never choose
Cause even though I take the piss
I'm glad the future's blue
Scumbag city blues, scumbag city blues (x6)


************************************

| h  Hammer-on
| b  Bend

************************************

            
            
Suggest correction
Creating personal tab
Creating personal tab
You can edit any tab online and save it as your Personal.

You can edit, replace or remove any tab part or add personal notes – all changes will be seen only by you.

Personal tabs can be accessed anytime from any device, even offline.
Learn more »
comments
print report bad tab
3 comments total.
+2 reply
nickbrown414 10 Sep 30, 2015 08:14 AM, edited at 12:15 pm

I think this is the solo:

e------10-13-10-----10-13-10-----|------10-13-10-13b15-13~-|
B-10-13-------10-13--------10-13|-10-13-------------------|
G-------------------------------|-------------------------|
D-------------------------------|-------------------------|
A-------------------------------|-------------------------|
E-------------------------------|-------------------------|

e------10-13-10------10-13-10-----|---------------------|
B-10-13--------10-13---------10-13|-10-------10-10------|
G---------------------------------|-12b14b12-12-10------|
D---------------------------------|---------------12----|
A---------------------------------|---------------------|
E---------------------------------|---------------------|

0 reply
priccis 40 Nov 02, 2015 12:45 PM

Thank you!

0 reply
tomt0988 10 Sep 09, 2017 04:47 AM

Nice one for this bro

guest
You may want to rate the tab now too:
select rating
Wanna post a correction for this tab? Suggest correction