Oops, an error
Loading. Please wait.

Glitter Hits Bass Tab

787 views 1 this week
no commentswrite comment
1 2 3 4 5
please rate
add to favorites
launch autoscroll
font size
0
reset
guitar tuner
Autoscroll
slow
fast
+/-
esc
set tempo
stop
Help us to improve Ultimate-Guitar.com Take our survey!
×
Author
Difficulty
novice
-------------------------------------------------------------------------------
			     Glitter Hits - The Styles
-------------------------------------------------------------------------------

Tabbed By: Dead Marshal
Contact me via UG if you have any problems.

Tuning: Standard
INTRO:
G|---------------------------------------------------------------------------|
D|---------------------------------------------------------------------------|
A|-------444-22--------------------------------------------------------------|
E|444-22---------------------------------------------------------------------|
PRE-CHORUS:
G|---------------------------------------------------------------------------|
D|---------------------------------------------------------------------------|
A|7-7-7-7--------------------------------------------------------------------|
E|--------9-9-9-9---444-22--999-77---444-22--999-77--------------------------|
CHORUS:-pull offs optional, i just like to add them in
G|---------------------------------------------------------------------------|
D|---------------------------------------------------------------------------|
A|---------------------------------------------------------------------------|
E|444-22p0--999-77--444-22p0--999-77-----------------------------------------|
2
G|---------------------------------------------------------------------------|
D|---------------------------------------11-11--99-88------------------------|
A|--77----77-----88-99-11-11----77----77---------------11-11-----------------|
E|00----00-----99------------00----00----------------------------------------|
END CHORUS
G|---------------------------------------------------------------------------|
D|---------------------------------------------------------------------------|
A|---------------------------------------------------------------------------|
E|00--12-12--00-12-12--9-----------------------------------------------------|

there are the bits, you can variate it so that you play the notes on less strings if you 
it to sound smoother
INTRO:
G|---------------------------------------------------------------------------|
D|---------------------------------------------------------------------------|
A|---------------------------------------------------------------------------|
E|444-22---999-77------------------------------------------------------------|
PRE-CHORUS
G|---------------------------------------------------------------------------|
D|---------------------------------------------------------------------------|
A|7-7-7-7--------------------------------------------------------------------|
E|--------9-9-9-9---444-22--999-77---444-22--999-77--------------------------|
CHORUS: -pull offs optional, i just like to add them in
G|---------------------------------------------------------------------------|
D|---------------------------------------------------------------------------|
A|---------------------------------------------------------------------------|
E|444-22p0--999-77--444-22p0--999-77-----------------------------------------|
2
G|---------------------------------------------------------------------------|
D|---------------------------------------------------------------------------|
A|---------------------------------------------------------------------------|
E|00--12-12--00-12-12----99--13-13--14-14--16-16-----------------------------|

G|---------------------------------------------------------------------------|
D|---------------------------------------------------------------------------|
A|----------------------16-16--14-14--13-13----------------------------------|
E|00--12-12--00-12-12-----------------------16-16----------------------------|
END CHORUS
G|---------------------------------------------------------------------------|
D|---------------------------------------------------------------------------|
A|---------------------------------------------------------------------------|
E|00--12-12--00-12-12--9-----------------------------------------------------|

just because UG hasn't heard of popular bands :S
http://www.thestyles.net/home.html
Suggest correction
Give kudos to tab author, rate the tab!
1 2 3 4 5
comments
print report bad tab
guest
You may want to rate the tab now too:
select rating
Please do not post tabs as comments. Select "correction" instead!