Oops, an error
Loading. Please wait.

Melee Bass Tab

version 1
version 1

Whole song

Interactive

246 views 1 this week
no commentswrite comment
1 2 3 4 5
please rate
add to favorites
launch autoscroll
font size
0
reset
guitar tuner
Autoscroll
slow
fast
+/-
esc
set tempo
stop
Help us to improve Ultimate-Guitar.com Take our survey!
×
Contributor
Difficulty
Tuning
novice
D G C F A D
http://thesubtleway.net/

Artist: The Subtle Way
Album: Until We Have Faces EP (Negative Progression Records)
Song: Melee
(This tab is right from the doods at T-sway)


D Standard Tuning: D G C F

Bass: Chad Archila

**********************************************************

INTRO: "So when you know where..." (0:00)
(4x)
F|-------------------------------------------------------|
C|-------------------------------------------------------|
G|-------------------------------3-3-x-3-3-x-0-0-x-0-0-x-|
D|---000000000-------------------------------------------|

Second time through, end one beat early

**********************************************************

BREAKDOWN: "How long will my gears..." (0:20)

F|---------------------------------------------------|----------------------------------------|
C|---------------------------------------------------|----------------------------------------|
G|---------------------------------------------------|----------------------------------------|
D|---0-0--0--0----0--0--0--0-0--0--0-----------------|-0-0--0--0----0--0--0--0-0--0--0--00000-|

**********************************************************

                    /------play twice, second time w/o 9 & 5 at the end-----\
F|-------------------|---------------------------------------------------------|
C|------PAUSE--------|---------------------------------------------------------|
G|-------------------|-0-0000-0-0000-2-2222-2-2222-3-3333-3-3333-3-3333-9--5---|
D|-------------------|---------------------------------------------------------|

**********************************************************

VERSE 2: "Will my prints grace..." (0:55)
(4x)
F|------------------------------------------------------------|
C|------------------------------------------------------------|
G|-------------------------------3--3---3--3---5--5---5--5----|
D|-----0--0--------0--0---------------------------------------|

Pause at the guitar riff from 1:17-1:19

**********************************************************

VERSE 3: "Why sweeten our tongues..." (1:20)

(4x,third time strum first part)
F|------------------------------------|---------------------------------|
C|------------------------------------|---------------------------------|
G|------------------------------------|-3-3-3-3-3-3-3-3-0-0-0-0-0-0-0-0-|
D|---0-0--------0-0-0---------0-0-----|---------------------------------|

**********************************************************

INTERLUDE: "Take your time..." (1:42)

Synth alone for 4 measures

F|---------------------|---------------------|
C|---------------------|---------------------|
G|---3~----5~----7~----|---3~----5~----------|
D|---------------------|---------------0~----|

**********************************************************

BREAKDOWN 2: "I know how hard it is..." (2:07)
(3x)
F|-----------------------------|        F|------|
C|-----------------------------|  THEN  C|------|
G|-----------------------------|        G|------|
D|---0~--0~----0000000----0----|        D|--0~--|

Repeat BREAKDOWN 2

**********************************************************

Repeat CHORUS twice, coming in on the third chord

Play BREAKDOWN 2 once through


comments
We did not receive enough feedback on this tab! Please rate:
print report bad tab
1 2 3 4 5
I want to post or [tab]
guest
You may want to rate the tab now too:
select rating
Please do not post tabs as comments. Select "correction" instead!