Oops, an error
Loading. Please wait.

1Am Tab

version 1
version 1

Whole song

5,507 views 12 this week
no commentswrite comment
1 2 3 4 5
accurate
x 1
add to favorites
launch autoscroll
font size
0
reset
how to read this tab
guitar tuner
Tab Pro tools
  • play this tab
  • loop segment
  • change instrument
  • show fretboard
  • metronome
Autoscroll
slow
fast
+/-
esc
set tempo
stop
Band - The Subways
Song - 1Am
Tabbed by - Marc Banks
Date - 5th June 2005

Intro

------------------------------------------|
------------------------------------------|
---8-8-8--6-6--6--------------------------|
---8-8-8--6-6--6--------------------------|x3
---6-6-6--4-4--8--------------------------|
------------------------------------------|

------------------------------------------|
--12--------------------------------------|
--11-(x5)--11-----------------------------|
--9--------11-(x5)------------------------|
-----------9------------------------------|
------------------------------------------|

Verse
same chords with added muting of strings

-------------------x-x-x-x-x-x-x-x--------|
-------------------x-x-x-x-x-x-x-x--------|
---8-8-8--6-6--6---x-x-x-x-x-x-x-x--------|
---8-8-8--6-6--6---x-x-x-x-x-x-x-x--------|x3
---6-6-6--4-4--8--------------------------|
------------------------------------------|

------------------------------------------|
--12--------------------------------------|
--11-(x5)--11-----------------------------|
--9--------11-(x5)------------------------|
-----------9------------------------------|
------------------------------------------|
repeat all of this twice

then distortion is added and this is played
for the chorus
---------------------------------|
---------------------------------|
---8-8-8--6-6--6---11-8-11-8-----|
---8-8-8--6-6--6---11-8-11-8-----|x3
---6-6-6--4-4--8---9--6-9--6-----|
---------------------------------|

------------------------------------------|
--12--------------------------------------|
--11-(x5)--11-----------------------------|
--9--------11-(x5)------------------------|
-----------9------------------------------|
------------------------------------------|

verse
-------------------x-x-x-x-x-x-x-x--------|
-------------------x-x-x-x-x-x-x-x--------|
---8-8-8--6-6--6---x-x-x-x-x-x-x-x--------|
---8-8-8--6-6--6---x-x-x-x-x-x-x-x--------|(X3)
---6-6-6--4-4--8--------------------------|
------------------------------------------|

------------------------------------------|
--12--------------------------------------|
--11-(x5)--11-----------------------------|
--9--------11-(x5)------------------------|
-----------9------------------------------|
all times 3

chorus

---------------------------------|
---------------------------------|
---8-8-8--6-6--6---11-8-11-8-----|
---8-8-8--6-6--6---11-8-11-8-----|x3
---6-6-6--4-4--8---9--6-9--6-----|
---------------------------------|

------------------------------------------|
--12--------------------------------------|
--11-(x5)--11-----------------------------|
--9--------11-(x5)------------------------|
-----------9------------------------------|
------------------------------------------|
times 2

then verse with distortion
-------------------x-x-x-x-x-x-x-x--------|
-------------------x-x-x-x-x-x-x-x--------|
---8-8-8--6-6--6---x-x-x-x-x-x-x-x--------|
---8-8-8--6-6--6---x-x-x-x-x-x-x-x--------|(X3)
---6-6-6--4-4--8--------------------------|
------------------------------------------|

------------------------------------------|
--12--------------------------------------|
--11-(x5)--11-----------------------------|
--9--------11-(x5)------------------------|
-----------9------------------------------|
times 2

finish with
------------------------------------------|
------------------------------------------|
---8-8-8--6-6--6--------------------------|
---8-8-8--6-6--6--------------------------|
---6-6-6--4-4--8--------------------------|
------------------------------------------|


GUITAR 2
throughout most of the songs there little riffs
here they are
-----------------------------------------|
--------------------11--8----------------|
-----------------------------------------|
-----------------------------------------|
-----------------------------------------|
-----------------------------------------|

-----------------------------------------|
---------------------9-------------------|
------------------------11---------------|
-----------------------------------------|
-----------------------------------------|
-----------------------------------------|

---------------------14--11--------------|
-----------------------------------------|
-----------------------------------------|
-----------------------------------------|
-----------------------------------------|
-----------------------------------------|

----------------------16-14--16-14-------|
-----------------------------------------|
-----------------------------------------|
-----------------------------------------|
-----------------------------------------|
-----------------------------------------|
these occur most noticably at "0.43" - "0.52"
if you notice them then you will know where
they are played elsewhere in the song
....thats it then..enjoy
comments
We did not receive enough feedback on this tab! Please rate:
print report bad tab
1 2 3 4 5
I want to post or [tab]
guest
You may want to rate the tab now too:
select rating
Please do not post tabs as comments. Select "correction" instead!