Oops, an error
Loading. Please wait.

Alright Bass Tab

version 1
version 1

Whole song

Interactive

4,054 views 1 this week
no commentswrite comment
1 2 3 4 5
excellent!
x 4
add to favorites
launch autoscroll
font size
0
reset
guitar tuner
Tab Pro tools
  • play this tab
  • loop segment
  • change instrument
  • show fretboard
  • metronome
Autoscroll
slow
fast
+/-
esc
set tempo
stop
Contributor
Tuning
D# G# C# F# A# D#
Song: Alright
Band: The Subways
Tabbed By: ConkyJ20


Tuning: Half a Step Down (E Flat)




Main Riff
Gb|------------------------------------------------------------------------|
Db|------------------------------------------------------------------------|
Ab|------33---7-7--10--7--5555---------------------------------------------| x2
Eb|------------------------------------------------------------------------|


Verse
Gb|------------------------------------------------------------------------|
Db|------------------------------------------------------------------------|
Ab|------33---7-7-------------555------------------------------------------| x2
Eb|--------------------3-0-3-----------------------------------------------|
                                                                             
Gb|----------------1212----------------------------------------------------|
Db|---------1414-0---------------------------------------------------------|
Ab|------------------------10----10-12-------------------------------------| x2
Eb|---------------------------12-------------------------------------------|


Pre Chorus
Gb|------------------------------------------------------------------------|
Db|------------------77-99-------------------------------------------------|
Ab|-------------------------------77------7-----77-----7-------------------|
Eb|--------7-77-77-7-----------00-----00----00------00---------------------|

Gb|------------------------------------------------------------------------|
Db|------------------77-99-------------------------------------------------|
Ab|-------------------------------77------7-----77777-5555-----------------|
Eb|--------7-77-77-7-----------00-----00----0------------------------------|


Chorus
Gb|------------------------------------------------------------------------|
Db|------------------------------------------------------------------------|
Ab|-----101010101010101010101010-5555-777777777777-5555--------------------| x2
Eb|------------------------------------------------------------------------|


Main Riff
Gb|------------------------------------------------------------------------|
Db|------------------------------------------------------------------------|
Ab|------33---7-7--10--7--5555---------------------------------------------| x2
Eb|------------------------------------------------------------------------|


Verse
Gb|------------------------------------------------------------------------|
Db|------------------------------------------------------------------------|
Ab|------33---7-7-------------555------------------------------------------| x2
Eb|--------------------3-0-3-----------------------------------------------|

Gb|----------------1212----------------------------------------------------|
Db|---------1414-0---------------------------------------------------------|
Ab|------------------------10----10-12-------------------------------------| x2
Eb|---------------------------12-------------------------------------------|


Pre-Chorus
Gb|------------------------------------------------------------------------|
Db|------------------77-99-------------------------------------------------|
Ab|-------------------------------77------7-----77-----7-------------------|
Eb|--------7-77-77-7-----------00-----00----00------00---------------------|

Gb|------------------------------------------------------------------------|
Db|------------------77-99-------------------------------------------------|
Ab|-------------------------------77------7-----77777-5555-----------------|
Eb|--------7-77-77-7-----------00-----00----0------------------------------|


Chorus
Gb|------------------------------------------------------------------------|
Db|------------------------------------------------------------------------|
Ab|-----101010101010101010101010-5555-777777777777-5555--------------------| x2
Eb|------------------------------------------------------------------------|


Bridge
Gb|------------------------------------------------------------------------|
Db|------------------------------------------------------------------------|
Ab|--3-33-3--/1010\55-3-33-3--/1010\55-3-33-3/1010\55----------------------|
Eb|------------------------------------------------------------------------|

Gb|------------------------------------------------------------------------|
Db|-------------------------------------------------9999--12121212---------|
Ab|--00000000---12121212----10101010--55555555-----------------------------|
Eb|------------------------------------------------------------------------|


Chorus
Gb|------------------------------------------------------------------------|
Db|------------------------------------------------------------------------|
Ab|-----101010101010101010101010-5555-777777777777-5555--------------------| x4
Eb|------------------------------------------------------------------------|



Outro
Gb|------------------------------------------------------------------------|
Db|--------1414-1212--14121412---------------------1212--------------------|
Ab|----------------------------1414-1212--14121412-------------------------|
Eb|------------------------------------------------------------------------|

Gb|---------------------------1211-----------------------------------------|
Db|--------1414-1212--141214------14------------------------1212-----------|
Ab|----------------------------------1414-1212--14121412-------------------|
Eb|------------------------------------------------------------------------|


Gb|------------------------------------------------------------------------|
Db|--------1414-1212--14121412---------------------1212--------------------|
Ab|----------------------------1414-1212--14121412-------------------------|
Eb|------------------------------------------------------------------------|

Gb|---------------------------1211-----------------------------------------|
Db|--------1414-1212--141214------14------------------------1212-12--------|
Ab|----------------------------------1414-1212--14121412-------------------|
Eb|--------------------------------------------------------------------33--|



/ slide up
\ slide down

Main Riff
Verse
Pre-Chorus
Chorus
Main Riff 
Verse 
Pre-Chorus 
Chorus 
Bridge 
Chorus 
Outro 
comments
print report bad tab
I want to post or [tab]
guest
You may want to rate the tab now too:
select rating
Please do not post tabs as comments. Select "correction" instead!