Oops, an error
Loading. Please wait.

Alright Tab

version 1
version 1

Whole song

Interactive

4,737 views 1 this week
no commentswrite comment
1 2 3 4 5
please rate
add to favorites
launch autoscroll
font size
0
reset
how to read this tab
guitar tuner
Autoscroll
slow
fast
+/-
esc
set tempo
stop
Help us to improve Ultimate-Guitar.com Take our survey!
×
Contributor
Tuning
Tabbers playing skills
D# G# C# F# A# D#
intermediate ++
Song: Alright
Band: The Subways
Album: All Or Nothing


Tuning: HALF STEP DOWN


INTRO:

Part 1:

eb|3-3---3---3---3---3---2---2-3-3-|
Bb|1-1---0---0---3---3---3---3-3-3-|
Gb|0-0---0---0---0---0---2---2-0-0-|
Db|2-2-0-2---2-0-0---0-0-0---0-0-0-|
Ab|3-3-0-2---2-0-2---2-0-0---0-0-0-|
Eb|----0-0---0-0-3---3-0-----------|

eb|3-3---3---3---3---3---2---2-0-0-|
Bb|1-1---0---0---3---3---3---3-0-0-|
Gb|0-0---0---0---0---0---2---2-0-0-|
Db|2-2-0-2---2-0-0---0-0-0---0-0-0-|
Ab|3-3-0-2---2-0-2---2-0-0---0-0-0-|
Eb|----0-0---0-0-3---3-0-----------|

Part 2:

eb|7-----7-------7-----10---10-10--|
Bb|--8-----8-------8---------------|
Gb|--------------------------------|
Db|--------------------------------|  x2
Ab|--------------------------------|
Eb|--------------------------------|

VERSE:

eb|3-3---3---3---3---3---2---2-2---|
Bb|3-3---3---3---3---3---3---3-3---|
Gb|0-0---0---0---0---0---2---2-2---|
Db|2-2-0-2---2-0-0---0-0-0---0-0---|
Ab|3-3-0-2---2-0-2---2-0-0---0-0---|
Eb|----0-0---0-0-3---3-0-----------|

eb|3-3---3---3---3---3---2---2-2-3-|
Bb|3-3---3---3---3---3---3---3-3-3-|
Gb|0-0---0---0---0---0---2---2-2-2-|
Db|2-2-0-2---2-0-0---0-0-0---0-0-0-|
Ab|3-3-0-2---2-0-2---2-0-0---0-0-0-|
Eb|----0-0---0-0-3---3-0-----------|


eb|3-3---3---3---3---3---2---2-2---|
Bb|3-3---3---3---3---3---3---3-3---|
Gb|0-0---0---0---0---0---2---2-2---|
Db|2-2-0-2---2-0-0---0-0-0---0-0---|
Ab|3-3-0-2---2-0-2---2-0-0---0-0---|
Eb|----0-0---0-0-3---3-0-----------|

eb|3-3---3---3---3---3---2---2-0-0-|
Bb|3-3---3---3---3---3---3---3-0-0-|
Gb|0-0---0---0---0---0---2---2-0-0-|
Db|2-2-0-2---2-0-0---0-0-0---0-0-0-|
Ab|3-3-0-2---2-0-2---2-0-0---0-0-0-|
Eb|----0-0---0-0-3---3-0-----------|

PRE-CHORUS:

eb|------------------------------------7-7-----7-------7-7-----7\x-|
Bb|4---x-x-444-x-x-4---x-x-44444-4-----8-8-----8-------8-8-----8\x-|
Gb|4---x-x-444-x-x-4---x-x-44444-4-----9-9-----9-------9-9-----9\x-|
Db|4---x-x-444-x-x-4---x-x-44444-4-9-9-9-9-9-9-9---9-9-9-9-9-9-9\x-|
Ab|2---x-x-222-x-x-2---x-x-22222-2-7-7-7-7-7-7-7---7-7-7-7-7-7-7\x-|
Eb|----------------------------------------------------------------|
                                   . .     . .     . .     . .


eb|------------------------------------7-7-----7---7-------5-5-5-5-|
Bb|4---x-x-444-x-x-4---x-x-44444-4-----8-8-----8---8-------5-5-5-5-|
Gb|4---x-x-444-x-x-4---x-x-44444-4-----9-9-----9---9-------6-6-6-6-
Db|4---x-x-444-x-x-4---x-x-44444-4-9-9-9-9-9-9-9---9-------7-7-7-7-|
Ab|2---x-x-222-x-x-2---x-x-22222-2-7-7-7-7-7-7-7---7-------7-7-7-7-|
Eb|--------------------------------------------------------5-5-5-5-|
                                   . .     . .  

CHORUS:

eb|--------------------------------3---3-3---3-3-3-3---3-3---------|
Bb|--------------------------------0---0-0---0-0-0-0---0-0---------|
Gb|------------------------2-------0---0-0---0-0-0-0---0-0-2-------|
Db|5---5-5---5-5-5-5---5-5-0---0---2---2-2---2-2-2-2---2-2-0---0---|
Ab|5---5-5---5-5-5-5---5-5-0---0---2---2-2---2-2-2-2---2-2-0---0---|
Eb|3---3-3---3-3-3-3---3-3-----------------------------------------|

eb|--------------------------------3---3-3---3-3-3-3---3-3---------|
Bb|--------------------------------0---0-0---0-0-0-0---0-0-3-3-3-3-|
Gb|------------------------2-------0---0-0---0-0-0-0---0-0-2-2-2-2-|
Db|5---5-5---5-5-5-5---5-5-0---0---2---2-2---2-2-2-2---2-2-0-0-0-0-|
Ab|5---5-5---5-5-5-5---5-5-0---0---2---2-2---2-2-2-2---2-2-0-0-0-0-|
Eb|3---3-3---3-3-3-3---3-3-----------------------------------------|

- AFTER CHORUS: Intro Part 2
- VERSE 2
- PRE-CHORUS
- CHORUS
  
BRIDGE:   
         & I       won  -  der ...

   1 + 2 + 3   4   1 + 2 + 3   4     
eb|--------------------------------|
Bb|------3---------------3---------|
Gb|--0---------------0-------------|
Db|--------------------------------|
Ab|3-------------------------------|
Eb|----------------3---------------|

eb|--------------------------------|
Bb|------3---------------3---------|
Gb|--0---------------0-------------|
Db|--------------------------------|
Ab|3---------------0---------------|
Eb|--------------------------------|
     
eb|--------------------------------|
Bb|------3---------------3---------|
Gb|--0---------------0-------------|
Db|--------------------------------|
Ab|3-------------------------------|
Eb|----------------0---------------|

eb|--------------------------------|
Bb|------1---------------1---------|
Gb|----2---------------2-----------|
Db|--3---------------3-------------|
Ab|3---------------3---------------|
Eb|--------------------------------|

eb|--------------------------------|
Bb|------3---------------3---------|
Gb|----2---------------2-----------|
Db|--4---------------4-------------|
Ab|5---------------0---------------|
Eb|--------------------------------|

- CHORUS x2

OUTRO:

   1       2       3       4
eb|--------------------------------|
Bb|8-8-8-8-8-8-8-8-8-8-8-8-7-7-7-7-|
Gb|7-7-7-7-7-7-7-7-7-7-7-7-7-7-7-7-|
Db|--------------------------------|  repeat until the end
Ab|--------------------------------|
Eb|--------------------------------|

this would roughly be what the keyboard plays:

eb|--------------------------10-7--|
Bb|8-8-8-7-7-7-8-8-8-7-7-7-8-----10|
Gb|--------------------------------|
Db|--------------------------------|  
Ab|--------------------------------|
Eb|--------------------------------|

end on:

eb|7-------------------------------|
Bb|8-------------------------------|
Gb|7-------------------------------|
Db|------------------------5-5-5-5-|  
Ab|------------------------5-5-5-5-|
Eb|------------------------3-3-0-3-|

=====================================================

. ... palm mute
x ... Mute Note
\ ... slide down
comments
We did not receive enough feedback on this tab! Please rate:
print report bad tab
1 2 3 4 5
I want to post or [tab]
guest
You may want to rate the tab now too:
select rating
Please do not post tabs as comments. Select "correction" instead!