Oops, an error
Loading. Please wait.

California Tab

1,649 views 1 this week
1 commentread comment
1 2 3 4 5
3 more votes to show rating
add to favorites
launch autoscroll
font size
0
reset
how to read this tab
guitar tuner
Autoscroll
slow
fast
+/-
esc
set tempo
stop
Help us to improve Ultimate-Guitar.com Take our survey!
×
Author
Difficulty
novice
i found this on utube then i found the tune enjoy

-------------------------------------------------|
-------------------------------------------------|
-5-5-5-5-7-8-8-8-8-------------------------------|
-5-5-5-5-7-8-8-8-8-6-6-6-6-6--11-11-11-11-11-----|
-3-3-3-3-5-6-6-6-6-6-6-6-6-6--11-11-11-11-11-----|
-------------------4-4-4-4-4--9--9--9--9--9------|  x how many times you want
 dont no the next bit but i will put in i find it out
Suggest correction
Give kudos to tab author, rate the tab!
1 2 3 4 5
comments
print report bad tab
1 comment total.
0 reply
aspey_9 41 Aug 28, 2007 12:11 PM

sounds good but i think this sounds a bit closer:
-------------------------------------------------|
-------------------------------------------------|
-5-5-5-5-7-8-8-8-8-------------------------------|
-5-5-5-5-7-8-8-8-8-6-6-6-6-6--9-9-9-9-9----------|
-3-3-3-3-5-6-6-6-6-6-6-6-6-6--9-9-9-9-9----------|
-------------------4-4-4-4-4--7-7-7-7-7----------|

i could be wrong though...great effort!

guest
You may want to rate the tab now too:
select rating
Wanna post a correction for this tab? Suggest correction