Oops, an error
Loading. Please wait.

Encore At 1 Am Tab

612 views 1 this week
no commentswrite comment
1 2 3 4 5
3 more votes to show rating
add to favorites
launch autoscroll
font size
0
reset
how to read this tab
guitar tuner
Autoscroll
slow
fast
+/-
esc
set tempo
stop
Help us to improve Ultimate-Guitar.com Take our survey!
×
Author
Difficulty
novice
Tabbed by: Randomkiler
E-Mail:buzzoff638@aol.com

The Subways - Encore At 1 AM - Young For Eternity
it takes hard stamina(or a fast forward button) to actualy stand through the
nothingness after somewhere, but if you make it, you hear at 1 am. a great song.

Last Update: 3/17/06

Standard tuning - EADGBe (its actualy played all flat, but if you choose all flat, push all notes up a fret)

Intro - Heavy Distortion throughout - (0:00-0:30)
|-----------------|-----------------|-----------------|-----------------|
|-----------------|-----------------|-----------------|-----------------| 
|-8-8-6-8-x-x-x-x-|-8-8-6-8-x-x-x-x-|-8-8-6-8-x-x-x-x-|-7-7-7-7-9-9-9-9-|
|-8-8-6-8-x-x-x-x-|-8-8-6-8-x-x-x-x-|-8-8-6-8-x-x-x-x-|-7-7-7-7-9-9-9-9-|
|-6-6-4-6-x-x-x-x-|-6-6-4-6-x-x-x-x-|-6-6-4-6-x-x-x-x-|-5-5-5-5-7-7-7-7-|
|-----------------|-----------------|-----------------|-----------------|

|-----------------|-----------------|-----------------|-----------------|
|-----------------|-----------------|-----------------|-----------------| 
|-8-8-6-8-x-x-x-x-|-8-8-6-8-x-x-x-x-|-8-8-6-8-x-x-x-x-|-7-7-7-7-9-9-9-9-|
|-8-8-6-8-x-x-x-x-|-8-8-6-8-x-x-x-x-|-8-8-6-8-x-x-x-x-|-7-7-7-7-9-9-9-9-|
|-6-6-4-6-x-x-x-x-|-6-6-4-6-x-x-x-x-|-6-6-4-6-x-x-x-x-|-5-5-5-5-7-7-7-7-|
|-----------------|-----------------|-----------------|-----------------|
at 1 am...
|-----------------|-----------------|-----------------|-----------------|
|-----------------|-----------------|-----------------|-----------------| 
|-8-8-6-8-x-x-x-x-|-8-8-6-8-x-x-x-x-|-8-8-6-8-x-x-x-x-|-7-7-7-7-9-9-9-9-|
|-8-8-6-8-x-x-x-x-|-8-8-6-8-x-x-x-x-|-8-8-6-8-x-x-x-x-|-7-7-7-7-9-9-9-9-|
|-6-6-4-6-x-x-x-x-|-6-6-4-6-x-x-x-x-|-6-6-4-6-x-x-x-x-|-5-5-5-5-7-7-7-7-|
|-----------------|-----------------|-----------------|-----------------|
that i want her...

Chorus - Light Distortion throughout - (0:30-0:40)
|-----------------|-----------------|-----------------|-----------------|
|-----------------|-----------------|-----------------|-----------------|
|-----------------|-----------------|-----------------|-----------------|
|-7-7-5-7-8-6-8-6-|-7-7-5-7-8-6-8-6-|-7-7-5-7-8-6-8-6-|-5-5-5-5-7-7-7-7-|
|-7-7-5-7-8-6-8-6-|-7-7-5-7-8-6-8-6-|-7-7-5-7-8-6-8-6-|-5-5-5-5-7-7-7-7-|
|-5-5-3-5-6-4-6-4-|-5-5-3-5-6-4-6-4-|-5-5-3-5-6-4-6-4-|-3-3-3-3-5-5-5-5-|
                                                       i need her...
Verse - Heavy Distortion throughout - (0:40-1:09)
|-----------------|-----------------|-----------------|-----------------|
|-----------------|-----------------|-----------------|-----------------| 
|-8-8-6-8-x-x-x-x-|-8-8-6-8-x-x-x-x-|-8-8-6-8-x-x-x-x-|-7-7-7-7-9-9-9-9-|
|-8-8-6-8-x-x-x-x-|-8-8-6-8-x-x-x-x-|-8-8-6-8-x-x-x-x-|-7-7-7-7-9-9-9-9-|
|-6-6-4-6-x-x-x-x-|-6-6-4-6-x-x-x-x-|-6-6-4-6-x-x-x-x-|-5-5-5-5-7-7-7-7-|
|-----------------|-----------------|-----------------|-----------------|

|-----------------|-----------------|-----------------|-----------------|
|-----------------|-----------------|-----------------|-----------------| 
|-8-8-6-8-x-x-x-x-|-8-8-6-8-x-x-x-x-|-8-8-6-8-x-x-x-x-|-7-7-7-7-9-9-9-9-|
|-8-8-6-8-x-x-x-x-|-8-8-6-8-x-x-x-x-|-8-8-6-8-x-x-x-x-|-7-7-7-7-9-9-9-9-|
|-6-6-4-6-x-x-x-x-|-6-6-4-6-x-x-x-x-|-6-6-4-6-x-x-x-x-|-5-5-5-5-7-7-7-7-|
|-----------------|-----------------|-----------------|-----------------|
 at 1 am...
|-----------------|-----------------|-----------------|-----------------|
|-----------------|-----------------|-----------------|-----------------| 
|-8-8-6-8-x-x-x-x-|-8-8-6-8-x-x-x-x-|-8-8-6-8-x-x-x-x-|-7-7-7-7-9-9-9-9-|
|-8-8-6-8-x-x-x-x-|-8-8-6-8-x-x-x-x-|-8-8-6-8-x-x-x-x-|-7-7-7-7-9-9-9-9-|
|-6-6-4-6-x-x-x-x-|-6-6-4-6-x-x-x-x-|-6-6-4-6-x-x-x-x-|-5-5-5-5-7-7-7-7-|
|-----------------|-----------------|-----------------|-----------------|
that i want him....
Chorus - Light Distortion throughout - (1:10-1:29)
|-----------------|-----------------|-----------------|-----------------|
|-----------------|-----------------|-----------------|-----------------|
|-----------------|-----------------|-----------------|-----------------|
|-7-7-5-7-8-6-8-6-|-7-7-5-7-8-6-8-6-|-7-7-5-7-8-6-8-6-|-5-5-5-5-7-7-7-7-|
|-7-7-5-7-8-6-8-6-|-7-7-5-7-8-6-8-6-|-7-7-5-7-8-6-8-6-|-5-5-5-5-7-7-7-7-|
|-5-5-3-5-6-4-6-4-|-5-5-3-5-6-4-6-4-|-5-5-3-5-6-4-6-4-|-3-3-3-3-5-5-5-5-|
                                                       i need her...
|-----------------|-----------------|-----------------|-----------------|
|-----------------|-----------------|-----------------|-----------------|
|-----------------|-----------------|-----------------|-----------------|
|-7-7-5-7-8-6-8-6-|-7-7-5-7-8-6-8-6-|-7-7-5-7-8-6-8-6-|-5-5-5-5-7-7-7-7-|
|-7-7-5-7-8-6-8-6-|-7-7-5-7-8-6-8-6-|-7-7-5-7-8-6-8-6-|-5-5-5-5-7-7-7-7-|
|-5-5-3-5-6-4-6-4-|-5-5-3-5-6-4-6-4-|-5-5-3-5-6-4-6-4-|-3-3-3-3-5-5-5-5-|
                                     BROKEN...........
Outro - (1:29-1:51(END)
|-----------------|-----------------|-----------------|-----------------|
|-----------------|-----------------|-----------------|-----------------|
|-----------------|-----------------|-----------------|-----------------|
|-7-7-5-7-x-x-x-x-|-7-7-5-7-x-x-x-x-|-7-7-5-7-x-x-x-x-|-5-5-5-5-7-7-7-7-|
|-7-7-5-7-x-x-x-x-|-7-7-5-7-x-x-x-x-|-7-7-5-7-x-x-x-x-|-5-5-5-5-7-7-7-7-|
|-5-5-3-5-x-x-x-x-|-5-5-3-5-x-x-x-x-|-5-5-3-5-x-x-x-x-|-3-3-3-3-5-5-5-5-|
AT 1 AM..
|-----------------|-----------------|-----------------|-----------------|
|-----------------|-----------------|-----------------|-----------------|
|-----------------|-----------------|-----------------|-----------------|
|-7-7-5-7-x-x-x-x-|-7-7-5-7-x-x-x-x-|-7-7-5-7-x-x-x-x-|-5-5-5-5-7-7-7-7-|
|-7-7-5-7-x-x-x-x-|-7-7-5-7-x-x-x-x-|-7-7-5-7-x-x-x-x-|-5-5-5-5-7-7-7-7-|
|-5-5-3-5-x-x-x-x-|-5-5-3-5-x-x-x-x-|-5-5-3-5-x-x-x-x-|-3-3-3-3-5-5-5-5-|
GOT THIS FEELIN'

|-----------------|
|-----------------|
|-8-8-6-8-x-x-x-x-|
|-8-8-6-8-x-x-x-x-|
|-6-6-4-6-x-x-x-x-|
|-----------------|
          AT 1 AM
END
Thats the tab, note for note, if you have any suggestions, please help.
Suggest correction
Give kudos to tab author, rate the tab!
1 2 3 4 5
comments
print report bad tab
guest
You may want to rate the tab now too:
select rating
Wanna post a correction for this tab? Suggest correction