Oops, an error
Loading. Please wait.

Girls And Boys Bass Tab

version 1
version 1

Whole song

Interactive

11,860 views 1 this week
5 commentsread comments
1 2 3 4 5
x 6
add to favorites
launch autoscroll
font size
0
reset
guitar tuner
Autoscroll
slow
fast
+/-
esc
set tempo
stop
Help us to improve Ultimate-Guitar.com Take our survey!
×
Author
Difficulty
Tuning
novice
D# G# C# F# A# D#
The song is in flats, so tune down half a step

Intro
Gb|-----------------------------------------|
Db|--------99999999-------------------------|
Ab|-----------------------------------------|
Eb|77777777--------777777771010101012121212-|

Gb|-----------------------------------------|
Db|--------99997777-------------------------|
Ab|-----------------------------------------|
Eb|77777777--------777777771010101012121212-|

Gb|-----------------------------------------|
Db|-97-----99999999-97----------------------|
Ab|---97579-----------97579-----------------|
Eb|7---------------7-------1010101012121212-|

Gb|-----------------------------------------|
Db|-97-----99999999-97----------------------|
Ab|---97579-----------97579-----------------|
Eb|7---------------7-------1010101012121212-|

pause

Riff
Gb|-----------------------------------|
Db|-----------------------------------|
Ab|-----------------------------------|
Eb|0765303407653034076530340765303/15\

Gb|--------------------------------|
Db|------------------------------5-|
Ab|----------------------------57--|
Eb|0765303407653034076530340567----|

Verse 1
Gb|------------------------------------|
Db|-97------97------97------7/97-------|
Ab|---97579---97579---97579-----97579--| x5
Eb|7-------7-------7-------7-----------|

Gb|-------------------------------------|
Db|-97-------97------97------7/97-------|
Ab|---97579----97579---97579-----957575-|
Eb|7-------7--------7-------7-----------|

Chorus
Gb|----------------------------------------------------------------|
Db|----------------------------------------------------------------|
Ab|----------------------------22222222/10101010101010101077777777-|
Eb|7-7\--------7-7\--------7-7\------------------------------------|

Gb|----------------------------------------------------------------|
Db|----------------------------------------------------------------|
Ab|----------------------------55555555/10101010101010101077777777-|
Eb|7-7\--------7-7\--------7-7\------------------------------------|

Verse 2
Gb|------------------------------------|
Db|-97------97------97------7/97-------|
Ab|---97579---97579---97579-----97579--| x5
Eb|7-------7-------7-------7-----------|

Gb|-------------------------------------|
Db|-97-------97------97------7/97-------|
Ab|---97579----97579---97579-----957575-|
Eb|7-------7--------7-------7-----------|

Chorus
Gb|----------------------------------------------------------------|
Db|----------------------------------------------------------------|
Ab|----------------------------22222222/10101010101010101077777777-|
Eb|7-7\--------7-7\--------7-7\------------------------------------|

Gb|----------------------------------------------------------------|
Db|----------------------------------------------------------------|
Ab|----------------------------55555555/10101010101010101077777777-|
Eb|7-7\--------7-7\--------7-7\------------------------------------|

Outro
Gb|-----------------------------------|
Db|-----------------------------------|
Ab|-----------------------------------|
Eb|0765303407653034076530340765303/15\

Gb|-------------------------------|
Db|-------------------------------|
Ab|-------------------------------|
Eb|0765303407653034076530340765303

Gb|--------------------------------|
Db|------------------------------5-|
Ab|----------------------------57--|
Eb|0765303407653034076530340567----|

Gb|---------------------------------|
Db|---------------------------------|
Ab|---------------------------------|
Eb|0765303407653034076530340765303-0
Suggest correction
comments
print report bad tab
5 comments total. Showing first comments.
0 reply
indiekid12345 10 Apr 06, 2008 03:13 PM

mate this is just about spot on top work here mate 5 star!

+1 reply
alt ctrl def 10 Jun 11, 2008 12:21 PM

This is great! Although she does sing as well as play the verse riff, so maybe the "novice" rating was a bit unfair.

0 reply
cianjg 10 Nov 16, 2008 09:44 AM

I love you for posting this tab :D

=]™

guest
You may want to rate the tab now too:
select rating
Wanna post a correction for this tab? Suggest correction