Oops, an error
Loading. Please wait.

Girls And Boys Tab

version 1
version 1

Whole song

Interactive

33,262 views 33 this week
16 commentsread comments
1 2 3 4 5
excellent!
x 8
add to favorites
launch autoscroll
font size
0
reset
how to read this tab
guitar tuner
Tab Pro tools
  • play this tab
  • loop segment
  • change instrument
  • show fretboard
  • metronome
Autoscroll
slow
fast
+/-
esc
set tempo
stop
Contributor
Difficulty
Tuning
novice
D# G# C# F# A# D#
Song is in flats, so tune down half a step
(as someone pointed out yeah its a 3 piece band but the recording has a 2nd guitar part 
the verse n also thanks to the lads that pointed out a wee mistake in the main riff)

Intro
Eb|-2--2--2--0--0--0--|
Bb|--3--3-----3--3----|
Gb|4--4--4--4--4--4---|
Db|-------------------|
Ab|-------------------| x6
Eb|-------------------|

Eb|222-22-22-2-0--0--0--|
Bb|333-33-33-3--3--3----|
Gb|444-44-44-44--4--4---|
Db|444-44-44-4----------|
Ab|222-22-22-2----------| x2
Eb|---------------------|

Eb|222-22-22-2-000-00-00-0--|
Bb|333-33-33-3-333-33-33-3--|
Gb|444-44-44-4-444-44-44-4--|
Db|444-44-44-4-444-44-44-4--|
Ab|222-22-22-2-222-22-22-2--| x2
Eb|-------------------------|

Eb|----------------------------------|
Bb|----------------------------------|
Gb|----------------------------------|
Db|------5~-------5-5h7p5------5~-10-|
Ab|-------------------------------10-|
Eb|0-5-7----0-5-7--------0-5-7----8--|

Eb|------------------------------------------------------------------|
Bb|------------------------------------------------------------------|
Gb|------------------------------------------------------------------|
Db|------------------------------------------------------------------|
Ab|------------------------------------------------------------------|
Eb|0-7-6-5-3-0-3-4-0-7-6-5-3-0-3-4-0-7-6-5-3-0-3-4-0-7-6-5-3-0-3/15\-|

Eb|----------------------------------------------------------------|
Bb|----------------------------------------------------------------|
Gb|----------------------------------------------------------------|
Db|----------------------------------------------------------------|
Ab|----------------------------------------------------------------|
Eb|0-7-6-5-3-0-3-4-0-7-6-5-3-0-3-4-0-7-6-5-3-0-3-4-0-7-6-5-3-0-3-4-|

Verse 1
Eb|-2--2--2--5--5--5--7--7--7--9---9---9--|
Bb|--3--3-----5--5-----8--8-----10--10----|
Gb|4--4--4--6--6--6--7--7--7--9---9---9---|
Db| --------------------------------------|
Ab|---------------------------------------| x6
Eb|---------------------------------------|

a 2nd gtr plays d 1st intro bit throughout the verse
Eb|-2--2--2-|
Bb|--3--3---|
Gb|4--4--4--|
Db|---------|
Ab|---------|
Eb|---------|

Chorus
Eb|--------x-x-x----------------------3-3-3-3-0-0-0-0--|
Bb|--------x-x-x----------------------0-0-0-0-3-3-3-3--|
Gb|--------x-x-x----------------------0-0-0-0-0-0-0-0--|
Db|9-9\----x-x-x-9-9\-------9-9\------5-5-5-5-2-2-2-2--|
Ab|9-9\----x-x-x-9-9\-------9-9\------5-5-5-5-2-2-2-2--| x2
Eb|7-7\----x-x-x-7-7\-------7-7\-/12\-3-3-3-3-0-0-0-0--|

Verse 2
Eb|-2--2--2--5--5--5--7--7--7--9---9---9--|
Bb|--3--3-----5--5-----8--8-----10--10----|
Gb|4--4--4--6--6--6--7--7--7--9---9---9---|
Db| --------------------------------------|
Ab|---------------------------------------| x6
Eb|---------------------------------------|

Chorus
Eb|--------x-x-x----------------------3-3-3-3-0-0-0-0--|
Bb|--------x-x-x----------------------0-0-0-0-3-3-3-3--|
Gb|--------x-x-x----------------------0-0-0-0-0-0-0-0--|
Db|9-9\----x-x-x-9-9\-------9-9\------5-5-5-5-2-2-2-2--|
Ab|9-9\----x-x-x-9-9\-------9-9\------5-5-5-5-2-2-2-2--| x2
Eb|7-7\----x-x-x-7-7\-------7-7\-/12\-3-3-3-3-0-0-0-0--|

Outro
Eb|----------------------------------|
Bb|----------------------------------|
Gb|----------------------------------|
Db|------5~-------5-5h7p5------5~-10-|
Ab|-------------------------------10-|
Eb|0-5-7----0-5-7--------0-5-7----8--|

Eb|------------------------------------------------------------------|
Bb|------------------------------------------------------------------|
Gb|------------------------------------------------------------------|
Db|------------------------------------------------------------------|
Ab|------------------------------------------------------------------|
Eb|0-7-6-5-3-0-3-4-0-7-6-5-3-0-3-4-0-7-6-5-3-0-3-4-0-7-6-5-3-0-3/15\-|

Eb|---------------------------------------------------------------|
Bb|---------------------------------------------------------------|
Gb|---------------------------------------------------------------|
Db|------------------------------------------------------------5~-|
Ab|--------------------------------------------------------5-7----|
Eb|0-7-6-5-3-0-3-4-0-7-6-5-3-0-3-4-0-7-6-5-3-0-3-4-0-5-6-7--------|

Eb|----------------------------------------------------------------|
Bb|----------------------------------------------------------------|
Gb|----------------------------------------------------------------|
Db|----------------------------------------------------------------|
Ab|----------------------------------------------------------------|
Eb|0-7-6-5-3-0-3-4-0-7-6-5-3-0-3-4-0-7-6-5-3-0-3-4-0-7-6-5-3-0-3-4-|

Eb|----------------------------------------------------------------|
Bb|----------------------------------------------------------------|
Gb|----------------------------------------------------------------|
Db|----------------------------------------------------------------|
Ab|----------------------------------------------------------------|
Eb|0-7-6-5-3-0-3-4-0-7-6-5-3-0-3-4-0-7-6-5-3-0-3-4-0-7-6-5-3-0-3-0-|
comments
print report bad tab
16 comments total. Showing first comments.
0 reply
Master Christy wrote on April 13 2008, 06:20 pm

niceone sounds good!

0 reply
acl245 wrote on May 7 2008, 11:34 am

good tab but it was quite hard to read :(

0 reply
matt_is_cool wrote on June 18 2008, 05:00 pm

the intro isnt right

I want to post or [tab]
guest
You may want to rate the tab now too:
select rating
Please do not post tabs as comments. Select "correction" instead!