Oops, an error
Loading. Please wait.

Girls And Boys Tab

version 2
version 2

Whole song

Interactive

3,736 views 6 this week
no commentswrite comment
1 2 3 4 5
worth learning
x 1
add to favorites
launch autoscroll
font size
0
reset
how to read this tab
guitar tuner
Tab Pro tools
  • play this tab
  • loop segment
  • change instrument
  • show fretboard
  • metronome
Autoscroll
slow
fast
+/-
esc
set tempo
stop
Contributor
-------------------------------------------------------------------------------
                             Girls & Boys - The SUbways
-------------------------------------------------------------------------------
Tabbed by: Samlawd
Email:Sam_bell@hotmail.co.uk

Tuning: Drop D

intro
e|-------------------------------------|
B|---6-----6-----6---------------------|
G|-----6-----6-------8-6---8-6---8-----|  X10
D|-8-----8-----8---8-----8-----8-------|
A|-------------------------------------|
D|-------------------------------------|

Pre-riff bit
e|------------------------------------------|
B|------------------------------------------|
G|------------------------------------------|
D|--------------------------------9~--------|
A|-------9-------9h11p9--------9--9~--------|
D|-0-6-8---0-6-8---------0-6-8----9~--------|

Super cool riff bit
e|-----------------------------------------------------------------|
B|-----------------------------------------------------------------|
G|-----------------------------------------------------------------|
D|-----------------------------------------------------------------|
A|---1-0-------------1-0-------------1-0-------------1-0-----------|
D|-0-----5-4-0-4-5-0-----5-4-0-4-5-0-----5-4-0-4-5-0-----5-4s15s0--|

e|-----------------------------------------------------------------|
B|-----------------------------------------------------------------|
G|-----------------------------------------------------------------|
D|-----------------------------------------------------------------|
A|-1-0-------------1-0-------------1-0-------------1-0-------------|
D|-----5-4-0-4-5-0-----5-4-0-4-5-0-----5-4-0-4-5-0-----5-4-0-4~----|

Verse (Not perfect. Sounds like random picking if you ask me)
e|----------------------------------------------------------------|
B|---6-----6-----6---------------------7----7--7----9----9--9-----|
G|-----6-----6-------8-6---8-6---8---6----6-------6----6----------| X4
D|-8-----8-----8---8-----8-----8---8----8----8--8----8----8-------| 
A|----------------------------------------------------------------|
D|----------------------------------------------------------------|

chorus
e|---------------------------------------------------------------|
B|---------------------------------------------------------------|
G|-------------------------------11-11-11-11-11-11--8-8-8-8-8-8--| X2
D|-8-8s0---xxx---8-8s0----8-8s0--11-11-11-11-11-11--8-8-8-8-8-8--|
A|-8-8s0---xxx---8-8s0----8-8s0--9--9--9--9--9--9---6-6-6-6-6-6--|
D|-8-8s0---xxx---8-8s0----8-8s0----------------------------------|
             

Repeat verse 6 times

Then Chorus

Then 
e|------------------------------------------|
B|------------------------------------------|
G|------------------------------------------|
D|------------------------------------------|
A|-------9-------9h11p9--------9~-----------|
D|-0-6-8---0-6-8---------0-6-8--------------|

e|-----------------------------------------------------------------|
B|-----------------------------------------------------------------|
G|-----------------------------------------------------------------|
D|-----------------------------------------------------------------|
A|---1-0-------------1-0-------------1-0-------------1-0-----------|
D|-0-----5-4-0-4-5-0-----5-4-0-4-5-0-----5-4-0-4-5-0-----5-4s15s0--|

e|-----------------------------------------------------------------|
B|-----------------------------------------------------------------|
G|-----------------------------------------------------------------|
D|----------------------------------------------------------1-4----|
A|--1-0-------------1-0-------------1-0-------------0-1-3-4--------|
E|0-----5-4-0-4-5-0-----5-4-0-4-5-0-----5-4-0-4-5-0----------------|


e|-----------------------------------------------------------------|
B|-----------------------------------------------------------------|
G|-----------------------------------------------------------------|
D|-----------------------------------------------------------------|
A|---1-0-------------1-0-------------1-0-------------1-0-----------|
D|-0-----5-4-0-4-5-0-----5-4-0-4-5-0-----5-4-0-4-5-0-----5-4-0-4---|

e|-------------------------------------------------------------------|
B|-------------------------------------------------------------------|
G|-------------------------------------------------------------------|
D|----------------------------------------------------------------1--|
A|---1-0-------------1-0-------------1-0-------------1-0----------1--|
D|-0-----5-4-0-4-5-0-----5-4-0-4-5-0-----5-4-0-4-5-0-----5-4-0-4--1--|



It's an attempt. I know there can be plenty of corrections to be taken place.
Cheers though (y)
===============================================================================
comments
We did not receive enough feedback on this tab! Please rate:
print report bad tab
1 2 3 4 5
I want to post or [tab]
guest
You may want to rate the tab now too:
select rating
Please do not post tabs as comments. Select "correction" instead!