Oops, an error
Loading. Please wait.

I Want To Hear What Youve Got To Say Tab

7,667 views 1 this week
2 commentsread comments
1 2 3 4 5
accurate
x 7
add to favorites
launch autoscroll
font size
0
reset
how to read this tab
guitar tuner
Autoscroll
slow
fast
+/-
esc
set tempo
stop
Help us to improve Ultimate-Guitar.com Take our survey!
×
Author
Artist: The Subways
Song: I Want To Hear What You've Got To Say
Album:? (Not Yet Released)
Tuning: Flats- Eb Ab Db Gb Bb Eb
Tabbed By James Morris

Intro
Eb|-----------------------------------------------|
Bb|---6--6-6-6---6--6-6-6---5--5-5-5-/10-10-10-10-|
Gb|---7--7-7-7---5--5-5-5---5--5-5-5-/10-10-10-10-|
Db|---7--7-7-7---7--7-7-7---7--7-7-7-/10-10-10-10-|
Ab|-5-5--5-5-5-5-5--5-5-5-5-5--5-5-5-/-8--8--8--8-|
Eb|-----------------------------------------------|

   'Another Day Is Here And I am Still Alive'
'I Say These Words Aloud They Speak from The Inside'
Eb|-----------------------------------------------|
Bb|---6--6-6-6---6--6-6-6---5--5-5-5-/10-10-10-10-|
Gb|---7--7-7-7---5--5-5-5---5--5-5-5-/10-10-10-10-|
Db|---7--7-7-7---7--7-7-7---7--7-7-7-/10-10-10-10-|
Ab|-5-5--5-5-5-5-5--5-5-5-5-5--5-5-5-/-8--8--8--8-|
Eb|-----------------------------------------------|
   
   'And Every Time I See You, You just Walk Away'
Eb|---1--1-1-1-1---1-1-1-1/---3--3-3-3-3----3-3---|
Bb|---2--2-2-2-2---2-2-2-2/-4-4--4-4-4-4----4-4---|
Gb|-3-3--3-3-3-3-3-3-3-3-3/-5-5--5-5-5-5-5--5-5---|
Db|-3-3--3-3-3-3-3-3---3-3/-5-5--5-5-5-5-5--5-5---|
Ab|-1-1--1-1-1-1-1-----1-1/-3-3--3-3-3-3-3--3-3---|
Eb|-----------------------------------------------|

Eb|-----------------------------------------------|
Bb|---6--6-6-6---6--6-6-6---5--5-5-5-/10-10-10-10-|
Gb|---7--7-7-7---5--5-5-5---5--5-5-5-/10-10-10-10-|
Db|---7--7-7-7---7--7-7-7---7--7-7-7-/10-10-10-10-|
Ab|-5-5--5-5-5-5-5--5-5-5-5-5--5-5-5-/-8--8--8--8-|
Eb|-----------------------------------------------|

       'And Still The World Is Turning'
Eb|---1--1-1-1-1---1-1-1-1/---3--3-3-3-3----3-3---|
Bb|---2--2-2-2-2---2-2-2-2/-4-4--4-4-4-4----4-4---|
Gb|-3-3--3-3-3-3-3-3-3-3-3/-5-5--5-5-5-5-5--5-5---|
Db|-3-3--3-3-3-3-3-3---3-3/-5-5--5-5-5-5-5--5-5---|
Ab|-1-1--1-1-1-1-1-----1-1/-3-3--3-3-3-3-3--3-3---|
Eb|-----------------------------------------------|

'I Want to hear what you, what you've got to say'
Eb|-----------------------/---3--3-3-3-3----3-3---|
Bb|---2--2-2-2-2---2-2-2-2/-4-4--4-4-4-4----4-4---|
Gb|-2-2--2-2-2-2-2-2-2-2-2/-5-5--5-5-5-5-5--5-5---| x3
Db|-2-2--2-2-2-2-2-2---2-2/-5-5--5-5-5-5-5--5-5---|
Ab|-0-0--0-0-0-0-0-----0-0/-3-3--3-3-3-3-3--3-3---|
Eb|-----------------------------------------------|

       'Say,   hey,  hey,  hey,    hey,  uh'   
Eb|---1--1-1-1-1---1-1-1-1/---3--3-3-3-3----3-3---|
Bb|---2--2-2-2-2---2-2-2-2/-4-4--4-4-4-4----4-4---|
Gb|-3-3--3-3-3-3-3-3-3-3-3/-5-5--5-5-5-5-5--5-5---|
Db|-3-3--3-3-3-3-3-3---3-3/-5-5--5-5-5-5-5--5-5---|
Ab|-1-1--1-1-1-1-1-----1-1/-3-3--3-3-3-3-3--3-3---|
Eb|-----------------------------------------------|

Verse

Eb|-------------------------------------------|
Bb|-6--6-6-6--6--6-6-6--6--6-6-6-/10-10-10-10-|
Gb|-7--7-7-7--7--7-7-7--7--7-7-7-/10-10-10-10-|
Db|-7--7-7-7--7--7-7-7--7--7-7-7-/10-10-10-10-|
Ab|-5--5-5-5--5--5-5-5--5--5-5-5-/-8--8--8--8-|
Eb|-------------------------------------------|

Eb|-------------------------------------------|
Bb|-6--6-6-6--6--6-6-6--6--6-6-6-/10-10-10-10-|
Gb|-7--7-7-7--7--7-7-7--7--7-7-7-/10-10-10-10-|
Db|-7--7-7-7--7--7-7-7--7--7-7-7-/10-10-10-10-|
Ab|-5--5-5-5--5--5-5-5--5--5-5-5-/-8--8--8--8-|
Eb|-------------------------------------------|

Eb|-------------------------------------------|
Bb|-6--6-6-6--6--6-6-6--6--6-6-6-/10-10-10-10-|
Gb|-7--7-7-7--7--7-7-7--7--7-7-7-/10-10-10-10-|
Db|-7--7-7-7--7--7-7-7--7--7-7-7-/10-10-10-10-|
Ab|-5--5-5-5--5--5-5-5--5--5-5-5-/-8--8--8--8-|
Eb|-------------------------------------------|

       'And Still The World Is Turning'
Eb|---1--1-1-1-1---1-1-1-1/---3--3-3-3-3----3-3---|
Bb|---2--2-2-2-2---2-2-2-2/-4-4--4-4-4-4----4-4---|
Gb|-3-3--3-3-3-3-3-3-3-3-3/-5-5--5-5-5-5-5--5-5---|
Db|-3-3--3-3-3-3-3-3---3-3/-5-5--5-5-5-5-5--5-5---|
Ab|-1-1--1-1-1-1-1-----1-1/-3-3--3-3-3-3-3--3-3---|
Eb|-----------------------------------------------|

Fast Strumming-Distortion
Eb|-------------------------------------------------|
Bb|-6-6-6-6-6-6-6-6-6-6-6-6-6-6-6-6-6-6-6-6-6-6-6-6-|
Gb|-7-7-7-7-7-7-7-7-7-7-7-7-7-7-7-7-7-7-7-7-7-7-7-7-|
Db|-7-7-7-7-7-7-7-7-7-7-7-7-7-7-7-7-7-7-7-7-7-7-7-7-|
Ab|-5-5-5-5-5-5-5-5-5-5-5-5-5-5-5-5-5-5-5-5-5-5-5-5-|
Eb|-------------------------------------------------|

Eb|-------------------------|
Bb|-10-10-10-10-10-10-10-10-|
Gb|-10-10-10-10-10-10-10-10-|
Db|-10-10-10-10-10-10-10-10-|
Ab|--8--8--8--8--8--8--8--8-|
Eb|-------------------------|

'And Every Time I See You, You just Walk Away'
Eb|---1--1-1-1-1---1-1-1-1/---3--3-3-3-3----3-3---|
Bb|---2--2-2-2-2---2-2-2-2/-4-4--4-4-4-4----4-4---|
Gb|-3-3--3-3-3-3-3-3-3-3-3/-5-5--5-5-5-5-5--5-5---|
Db|-3-3--3-3-3-3-3-3---3-3/-5-5--5-5-5-5-5--5-5---|
Ab|-1-1--1-1-1-1-1-----1-1/-3-3--3-3-3-3-3--3-3---|
Eb|-----------------------------------------------|

'And Still The World Is Turning'
Eb|---1--1-1-1-1---1-1-1-1/---3--3-3-3-3----3-3---|
Bb|---2--2-2-2-2---2-2-2-2/-4-4--4-4-4-4----4-4---|
Gb|-3-3--3-3-3-3-3-3-3-3-3/-5-5--5-5-5-5-5--5-5---|
Db|-3-3--3-3-3-3-3-3---3-3/-5-5--5-5-5-5-5--5-5---|
Ab|-1-1--1-1-1-1-1-----1-1/-3-3--3-3-3-3-3--3-3---|
Eb|-----------------------------------------------|

'I want to hear what you, what you've got to say'
Eb|-----------------------/---3--3-3-3-3----3-3---|
Bb|---2--2-2-2-2---2-2-2-2/-4-4--4-4-4-4----4-4---|
Gb|-2-2--2-2-2-2-2-2-2-2-2/-5-5--5-5-5-5-5--5-5---| x3
Db|-2-2--2-2-2-2-2-2---2-2/-5-5--5-5-5-5-5--5-5---|
Ab|-0-0--0-0-0-0-0-----0-0/-3-3--3-3-3-3-3--3-3---|
Eb|-----------------------------------------------|

Outro
Eb|-------------------------------------------|
Bb|-6--6-6-6--6--6-6-6--6--6-6-6-/10-10-10-10-|
Gb|-7--7-7-7--7--7-7-7--7--7-7-7-/10-10-10-10-|
Db|-7--7-7-7--7--7-7-7--7--7-7-7-/10-10-10-10-|
Ab|-5--5-5-5--5--5-5-5--5--5-5-5-/-8--8--8--8-|
Eb|-------------------------------------------|

Eb|-------------------------------------------|
Bb|-6--6-6-6--6--6-6-6--6--6-6-6-/10-10-10-10-|
Gb|-7--7-7-7--7--7-7-7--7--7-7-7-/10-10-10-10-|
Db|-7--7-7-7--7--7-7-7--7--7-7-7-/10-10-10-10-|
Ab|-5--5-5-5--5--5-5-5--5--5-5-5-/-8--8--8--8-|
Eb|-------------------------------------------|

End On

Eb|---|
Bb|-6-|
Gb|-7-|
Db|-7-|
Ab|-5-|
Eb|---|

End. I am not sure if all of the lyrics are correct because I tabbed this from memory,
but the tab itself I am pretty sure is correct, but correct if there are any mistakes.
Please rate and comment also. Thanks.

Enjoy.
Suggest correction
What's this?
You can suggest a correction to this tab. Community and Mods will review your correction and vote to approve or reject it.
comments
print report bad tab
2 comments total.
-1 reply
JamesTheM 54 wrote on July 20 2006, 07:10 am

Good tab, but i think that the intro is the version played live

+1 reply
IRA4ever 20 wrote on October 21 2007, 04:06 pm

totally wrong

guest
You may want to rate the tab now too:
select rating
Please do not post tabs as comments. Select "correction" instead!