Oops, an error
Loading. Please wait.

I Wont Let You Down Bass Tab

4,719 views 1 this week
no commentswrite comment
1 2 3 4 5
x 3
add to favorites
launch autoscroll
font size
0
reset
guitar tuner
Autoscroll
slow
fast
+/-
esc
set tempo
stop
Help us to improve Ultimate-Guitar.com Take our survey!
×
Author
Song: I Won't Let You Down
Band: The Subways
Album: All Or Nothing
Tabbed By: ConkyJ20

Tuning: Half a Step Down (E Flat)


Riff
Gb|-------------------------------------------------------------|
Db|-------------------------------------------------------------|
Ab|------------------555----------------------------------------|x2
Eb|---55-0-33-0-11-0--------------------------------------------|


Verse
Gb|-------------------------------------------------------------|
Db|-------------------------------------------------------------|
Ab|------------------555----------------------------------------|x4
Eb|---55-0-33-0-11-0--------------------------------------------|


Pre Chorus
Gb|-------------------------------------------------------------|
Db|-------------------------------------------------------------|
Ab|-----88-888-8-1010-101010-10--1212121212121212---00000000----|x2
Eb|-------------------------------------------------------------|

Gb|-------------------------------------------------------------|
Db|-------------------------------------------------------------|
Ab|-----88-888-8-1010-101010-10--1212121212121212---55555555----|
Eb|-------------------------------------------------------------|

Gb|-------------------------------------------------------------|
Db|-------------------------------------------------------------|
Ab|---8888887755555555---1010101010101010-1111111111111111------|
Eb|-------------------------------------------------------------|


Chorus
Gb|--------------------------------12-10------------------------|
Db|-----------------------------10-------12-12-12-12-14-14-12-12|
Ab|-------------------8-8-8-8-----------------------------------|
Eb|---5-5-5-5-5-5-3-3-------------------------------------------|

Gb|-------------------------------------------------------------|
Db|-------------------------------------------------------------|
Ab|------1010101010101010--1111111111111111---------------------|
Eb|-------------------------------------------------------------|


Riff
Gb|-------------------------------------------------------------|
Db|-------------------------------------------------------------|
Ab|------------------555----------------------------------------|x2
Eb|---55-0-33-0-11-0--------------------------------------------|


Verse
Gb|-------------------------------------------------------------|
Db|-------------------------------------------------------------|
Ab|------------------555----------------------------------------|x2
Eb|---55-0-33-0-11-0--------------------------------------------|


Pre Chorus
Gb|-------------------------------------------------------------|
Db|-------------------------------------------------------------|
Ab|-----88-888-8-1010-101010-10--1212121212121212---00000000----|x2
Eb|-------------------------------------------------------------|

Gb|-------------------------------------------------------------|
Db|-------------------------------------------------------------|
Ab|-----88-888-8-1010-101010-10--1212121212121212---55555555----|
Eb|-------------------------------------------------------------|

Gb|-------------------------------------------------------------|
Db|-------------------------------------------------------------|
Ab|---8888887755555555---1010101010101010-1111111111111111------|
Eb|-------------------------------------------------------------|


Chorus
Gb|--------------------------------12-10------------------------|
Db|-----------------------------10-------12-12-12-12-14-14-12-12|
Ab|-------------------8-8-8-8-----------------------------------|
Eb|---5-5-5-5-5-5-3-3-------------------------------------------|
                                                                  x2
Gb|-------------------------------------------------------------|
Db|-------------------------------------------------------------|
Ab|------1010101010101010--1111111111111111---------------------|
Eb|-------------------------------------------------------------|


Bridge
Gb|-------------------------------------------------------------|
Db|-------------------------------------------------------------|
Ab|--55----------------55--------------55------3-33-------------|
Eb|-----5-555--1-1111------5-55-1-1111----5-55------55----------|

Gb|-------------------------------------------------------------|
Db|-------------------------------------------------------------|
Ab|----------55-------1010-1111---------------------------------|
Eb|-------------5-55--------------------------------------------|

Gb|-------------------------------------------------------------|
Db|-------------------------------------------------------------|
Ab|--55----------------55--------------55------3-33-------------|
Eb|-----5-555--1-1111------5-55-1-1111----5-55------55----------|

Gb|-------------------------------------------------------------|
Db|-------------------------------------------------------------|
Ab|----------55-------1010-1111---------------------------------|
Eb|-------------5-55--------------------------------------------|

Gb|-------------------------------------------------------------|
Db|-------------------------------------------------------------|
Ab|--55----------------55--------------55------3-33-------------|
Eb|-----5-555--1-1111------5-55-1-1111----5-55------55----------|

Gb|-------------------------------------------------------------|
Db|-------------------------------------------------------------|
Ab|------88888888--11111111-12121212----------------------------|
Eb|-------------------------------------------------------------|


Riff
Gb|-------------------------------------------------------------|
Db|-------------------------------------------------------------|
Ab|------------------555----------------------------------------|
Eb|---55-0-33-0-11-0--------------------------------------------|


Gb|-------------------------------------------------------------|
Db|-------------------------------------------------------------|
Ab|-------88888888--10101010-11111111---------------------------|
Eb|-------------------------------------------------------------|


Chorus
Gb|--------------------------------12-10------------------------|
Db|-----------------------------10-------12-12-12-12-14-14-12-12|
Ab|-------------------8-8-8-8-----------------------------------|
Eb|---5-5-5-5-5-5-3-3-------------------------------------------|

Gb|-------------------------------------------------------------|
Db|-------------------------------------------------------------|
Ab|------1010101010101010--1111111111111111---------------------|
Eb|-------------------------------------------------------------|


Gb|-------------------------------------------------------------|
Db|-----------------------1212121212121212-14141414-12121212----|
Ab|-------------888888888---------------------------------------|
Eb|---555555555-------------------------------------------------|

Gb|-------------------------------------------------------------|
Db|-------------------------------------------------------------|
Ab|------1010101010101010--1111111111111111---------------------|
Eb|-------------------------------------------------------------|


Outro
Gb|-------------------------------------------------------------|
Db|-------------------------------------------------------------|
Ab|------------------555----------------------------------------|x3
Eb|---55-0-33-0-11-0--------------------------------------------|

Gb|-------------------------------------------------------------|
Db|-------------------------------------------------------------|
Ab|-------88888888--10101010-11111111-12\-----------------------|
Eb|-------------------------------------------------------------|
Suggest correction
Give kudos to tab author, rate the tab!
1 2 3 4 5
comments
print report bad tab
guest
You may want to rate the tab now too:
select rating
Wanna post a correction for this tab? Suggest correction