Oops, an error
Loading. Please wait.

I Wont Let You Down Tab

version 2
version 2

Whole song

3,935 views 1 this week
no commentswrite comment
1 2 3 4 5
2 more votes to show rating
add to favorites
launch autoscroll
font size
0
reset
how to read this tab
guitar tuner
Autoscroll
slow
fast
+/-
esc
set tempo
stop
Help us to improve Ultimate-Guitar.com Take our survey!
×
Author
Difficulty
Band: The Subways
Song: I Won't Let You Down
Albm: All Or Nothing

Intro/Verse:
|----------------------------------|
|----------8--8-8------------------|
|----------7--7-7----------7--7-7--|
|---7-7-7--5--5-5--3--3-3--7--7-7--|
|---7-7-7----------3--3-3--5--5-5--|
|---5-5-5----------1--1-1----------|

Pre-Chorus:
|--------------------------------------------------|
|--------------------------------------------------|
|---10-x-10-10-10--12-x-12-12-12--2-2-2-2-2-2-2-2--|
|---10-x-10-10-10--12-x-12-12-12--2-2-2-2-2-2-2-2--|  x3
|---8--x-8--8--8---10-x-10-10-10--0-0-0-0-0-0-0-0--|
|--------------------------------------------------|

|----------------------------------------------------------|
|----------------------------------------------------------|
|---10-x-10-10-10--12-x-12-12-12--14-14-14-14-14-14-14-14--|
|---10-x-10-10-10--12-x-12-12-12--14-14-14-14-14-14-14-14--|
|---8--x-8--8--8---10-x-10-10-10--12-12-12-12-12-12-12-12--|
|----------------------------------------------------------|

Chorus:
|-----------------------------------------------------------------------|
|-----------------------------------------------------------------------|
|-------------------1010101010101010--7-7-7-7-7-7-7-7-------------------|
|--7-7-7-7-7-7-7-7--1010101010101010--7-7-7-7-7-7-7-7--5-5-5-5-6-6-6-6--|
|--7-7-7-7-7-7-7-7--8-8-8-8-8-8-8-8---5-5-5-5-5-5-5-5--5-5-5-5-6-6-6-6--|
|--5-5-5-5-5-5-5-5-------------------------------------3-3-3-3-4-4-4-4--|

I don't know the whole thing.
I just tabbed what I knew cos the others are blatantly wrong.
Thanks, please rate x
Suggest correction
Give kudos to tab author, rate the tab!
1 2 3 4 5
comments
print report bad tab
guest
You may want to rate the tab now too:
select rating
Wanna post a correction for this tab? Suggest correction