Oops, an error
Loading. Please wait.

Its A Party Bass Tab

version 1
version 1

Whole song

1,676 views 1 this week
no commentswrite comment
1 2 3 4 5
please rate
add to favorites
launch autoscroll
font size
0
reset
guitar tuner
Autoscroll
slow
fast
+/-
esc
set tempo
stop
Help us to improve Ultimate-Guitar.com Take our survey!
×
Author
Difficulty
novice
It's a Party by The Subways



Use distortion pedal

************************************************************************

Intro

G:|----------------|----------------|----------------|----------------|
D:|----------------|----------------|----------------|----------------|
A:|8-8-----8-8-8-6-|8-8-----8-8-8-6-|----------------|------------3/7-|
E:|----------------|----------------|9-9-----9-9-9-9-|6-6-----1-1-----|

Verse

G:|----------------|----------------|----------------|----------------|
D:|----------------|----------------|----------------|----------------|
A:|8-8-----8-8-----|8-8-----8-8-----|----------------|------------3/7-|
E:|----------------|----------------|9-9-----9-9-----|6-6-----1-1-----|

Prechorus 1

G:|----------------|----------------|----------------|----------------|
D:|----------------|----------------|----------------|8-8-8-8-8-------|
A:|4-4-4-4-4-4-4-4-|6-6-6-6-6-6-6-6-|4-4-4-4-4-4-4-4-|----------------|
E:|----------------|----------------|----------------|----------------|

Prechorus 2

G:|----------------|----------------|----------------|----------------|
D:|----------------|----------------|----------------|8-8-8-8-8-8-8-8-|
A:|4-4-4-4-4-4-4-4-|6-6-6-6-6-6-6-6-|4-4-4-4-4-4-4-4-|----------------|
E:|----------------|----------------|----------------|----------------|

Chorus 1

G:|----------------|--------10------|----------------|----------------|
D:|----------------|----------------|----------------|----------------|
A:|8-----8-6-----6-|8-----8-----6---|----------------|--------6-------|
E:|----------------|----------------|9-----9-6-----6-|9-----9-----9---|

Chorus 2

G:|----------------|----------------|----------------|----------------|
D:|----------------|----------------|----------------|----------------|
A:|8-8-8-8-6-6-6-6-|8-8-8-8-6-6-6-6-|----------------|--------6-6-6-6-|
E:|----------------|----------------|9-9-9-9-6-6-6-6-|9-9-9-9---------|

Bridge

G:|----------------|----------------|----------------|----------------|
D:|3-3-3-3/15151515|3-3-3-3/15151515|----------------|----------------|
A:|----------------|----------------|4---4---6-6-----|4---4---6-6-----|
E:|----------------|----------------|------------6---|------------6---|

************************************************************************

SONG ORDER:

Guitar
Intro        2x
Verse        3x
Prechorus 1  1x
Chorus 1     2x
Intro        2x
Verse        2x
Prechorus 1  1x
Chorus 1     2x
Bridge       2x
Verse        3x
Prechorus 2  1x
Prechorus 2  1x
Silence
Chorus 1     2x
Chorus 2     2x
Verse        2x
End    A:|8\

************************************************************************
Suggest correction
Give kudos to tab author, rate the tab!
1 2 3 4 5
comments
print report bad tab
guest
You may want to rate the tab now too:
select rating
Please do not post tabs as comments. Select "correction" instead!