Oops, an error
Loading. Please wait.

Its A Party Tab

version 1
version 1

Whole song

8,187 views 3 this week
1 commentread comment
1 2 3 4 5
accurate
x 6
add to favorites
launch autoscroll
font size
0
reset
how to read this tab
guitar tuner
Autoscroll
slow
fast
+/-
esc
set tempo
stop
Help us to improve Ultimate-Guitar.com Take our survey!
×
Author
Difficulty
novice
                             It's a party - The Subways

Tabbed by: drunja81
Email: amrk_91@mail.ru

They definitely play it live in a half step down tuning.

02/06/14 Corrected the bridge part

Tuning:Standart
Intro:
e|----------------|-------------------------------------------------------|
B|----------------|-------------------------------------------------------|
G|----------------|-------------------------------------------------------|
D|----33-3---33-3-|-------3-3---------3---------3-3-------3---------------|
A|----------------|-------------------------------------------------------|
E|----------------|-1-1---------1-1--------1-1-------1-1------------------|

e|-----------------------------------------------------------------------|
B|-----------------------------------------------------------------------|
G|----------------------------------------------------8\-----------------|
D|----------6-6------------6------------8-8------------------------------|
A|----------------------------------------------6-6----------------------|
E|---4-4------------4-4-----------6-6------------------------------------| x2

Verse:
e|---------------------------------|   ------------------------------|
B|----16-16---18-18----16-16---20--|   ------16-16--18----16-16--20--|
G|----15-15---15-15----15-15---15--|   ------15-15--15----15-15--15--|
D|---------------------------------|   ------------------------------|
A|---------------------------------|   ------------------------------|
E|---------------------------------|x1 ------------------------------| x4

e|------------------|
B|---16-16--18--20--|
G|---15-15--15--15--|
D|------------------|
A|------------------|
D|------------------|
A|------------------|
E|------------------| x1

Pre-chorus:
PM-------------------------------------------------------------|
e|-------------------------------------------------------------|
B|-------------------------------------------------------------|
G|--6-6-6-6-6-6--8-8-8-8-8--88888------------------------------|
D|--6-6-6-6-6-6--8-8-8-8-8--88888------------------------------|
A|--4-4-4-4-4-4--6-6-6-6-6--66666------------------------------|
E|-------------------------------------------------------------|

Chorus:
e|---------------------------4-4---------------------------|
B|---------------------------4-4---------------------------|
G|--------------6-66--6-66---6-6----8-88-------------------|
D|-3-33--3-33---6-66--6-66---6-6----8-88-------------------|
A|-3-33--3-33---4-44--4-44----------6-66-------------------|
E|-1-11--1-11----------------------------------------------| x2

Re-intro
Verse
Pre-chorus
Chorus

Bridge:


e|--------------------------------------------|              
B|--------------------------13-13-13-13-13-13-|            
G|--------------------------13-13-13-13-13-13-|          
D|---13--13p15-15-15-15-15--------------------|            
A|--------------------------------------------|            
E|--------------------------------------------|                x8

Verse like intro part
Pre-chorus x2
Chorus (in the beggining scratch with plectrum)x2
Outro (like intro part)
************************************

| /   slide up
| \   slide down
| h   hammer-on
| p   pull-off
| ~   vibrato
| +   harmonic
| x   Mute note
| b   Bend
| pb  Pre-bend
| br  Bend release
| pbr Pre-bend release
| brb Bend release bend

************************************
Suggest correction new What's this?
You can suggest a correction to this tab. Community and Mods will review your correction and vote to approve or reject it.
comments
print report bad tab
1 comment total.
0 reply
Eiche09 44 wrote on August 17 2011, 10:34 am

I think half step down tuning would make the song much easier but also sounds great in standard tuning :D

guest
You may want to rate the tab now too:
select rating
Please do not post tabs as comments. Select "correction" instead!