Oops, an error
Loading. Please wait.

Like I Love You Tab

1,861 views 3 this week
1 commentread comment
1 2 3 4 5
1 last vote to show rating
add to favorites
launch autoscroll
font size
0
reset
how to read this tab
guitar tuner
Autoscroll
slow
fast
+/-
esc
set tempo
stop
Help us to improve Ultimate-Guitar.com Take our survey!
×
Author
Difficulty
novice
Like I Love You by The Subways.

Standard Tuning (Although Billy tunes down to Eb, this is done in standard E)
No Capo.
Lots of overdrive :)

The structure is easy enough to work out so I'm not going to bother writing it on.


Intro/ Verse riff

----------------------|
----------------------|
----------------------|     x3
8-6-8-x-x-x-x-x-x-x-x-|
8-6-8-x-x-x-x-x-x-x-x-|
6-4-6-x-x-x-x-x-x-x-x-|



  Gb       Ebm
------------------|
------------------|
----------8-8-8-8-|    If playing in Eb, like Billy, play
-4-4-4-4--8-8-8-8-|    this second chord like an open E.
-4-4-4-4--6-6-6-6-|
-2-2-2-2----------|



Bridge

   Ab
-4-4-4-4-|
-4-4-4-4-|
-5-5-5-5-|
-6-6-6-6-|     as long as necessary.
-6-6-6-6-|
-4-4-4-4-|



Chorus

   Db       Bb       Fm      Abm
-4-4-4-4--1-1-1-1--1-1-1-1--4-4-4-4-|
-6-6-6-6--2-2-2-2--1-1-1-1--4-4-4-4-|
-6-6-6-6--3-3-3-3--1-1-1-1--5-5-5-5-|
-6-6-6-6--3-3-3-3--3-3-3-3--6-6-6-6-|
-4-4-4-4--1-1-1-1--3-3-3-3--6-6-6-6-|
-------------------1-1-1-1--4-4-4-4-|


Middle 8
(Same chords as chorus but long single strums)

Db       Bb       Fm       Abm
-4--------1--------1--------4--------|
-6--------2--------1--------4--------|
-6--------3--------1--------5--------|
-6--------3--------3--------6--------|
-4--------1--------3--------6--------|
-------------------1--------4--------|
Suggest correction
Give kudos to tab author, rate the tab!
1 2 3 4 5
comments
print report bad tab
1 comment total.
0 reply
Victor80 10 Mar 17, 2013 12:46 PM

The last verses/outro are:

-6------3-----3-----6-----|
-8------4-----3-----6-----|
-8------5-----3-----7-----|
-8------5-----5-----8-----|
-6------3-----5-----8-----|
--------------3-----6-----|

btw, great tab !

guest
You may want to rate the tab now too:
select rating
Wanna post a correction for this tab? Suggest correction