Oops, an error
Loading. Please wait.

Lostboy Tab

version 1
version 1

Whole song

15,998 views 1 this week
6 commentsread comments
1 2 3 4 5
x 4
add to favorites
launch autoscroll
font size
0
reset
how to read this tab
guitar tuner
Autoscroll
slow
fast
+/-
esc
set tempo
stop
Help us to improve Ultimate-Guitar.com Take our survey!
×
Author
Difficulty
Tuning
novice
D# G# C# F# A# D#
This is my first ever tab. I figured out the chords by watching an acoustic video on 
pretty easy, i think this is right.

Tune down half a step.

Intro

     G          E(wierd E chord)
Eb|-3333---------------|
Bb|-3333----12121212---|
Gb|-0000----11111111---|
Db|00000----9-9-9-9----|
Ab|22222----10101010---| x4
Eb|33333--0-0-0-0-0----|

VERSE (it was so odd......)
Eb|-3333---------------|
Bb|-3333----12121212---|
Gb|-0000----11111111---|
Db|00000----9-9-9-9----|
Ab|22222----10101010---| x8
Eb|33333--0-0-0-0-0----|


Bridge
(and we fell asleep...)

    C B Am          D
Eb|-0-0-000000000-000000000--|
Bb|-3-3-111111111-333333333--|
Gb|-0-0-222222222-222222222--|
Db|-2-0-222222222------------|
Ab|-3-2-000000000------------| x2
Eb|--------------------------|

Chorus
(i was a lostboy that was found.....)
                               C B  Am    C B    G
Eb|----------------------------0-0-00000--0-0-00000000---|
Bb|-----10-----10------8-------3-3-11111--3-3-33333333---|
Gb|---0---0---0--0----0--0-----0-0-22222--0-0-22222222---|
Db|--------0------0-------0----2-0-22222--2-0------------|
Ab|-10-------9-------7---------3-2-00000--3-2------------|
Eb|------------------------------------------------------|
Suggest correction
comments
print report bad tab
6 comments total. Showing first comments.
+2 reply
imsoinlove 40 Sep 07, 2008 05:16 PM

i just took a quick look at an acoustic version of the song (by the subways of course) and i guess i have some corrections:

vers chords are:

Eb|-3333----7-7-7-7----|
Bb|-3333----7-7-7-7----|
Gb|-0000----0-0-0-0----|
Db|00000----x-x-x-x----|
Ab|xxxxx----7-7-7-7----|
Eb|33333--0-0-0-0-0----|

im not sure yet whether he plays the G with a finger on D 2nd fret... you may figure that out by yourself!

also your B Bridge chord is play with a finger on D 2nd fret (same in chorus!)

maybe ill figure out the chorus some other day, isnt that hard!

cheers!

0 reply
imsoinlove 40 Sep 08, 2008 06:57 AM

alright, chorus chords are:

Eb|-x---x---x----|
Bb|-10--10--8----|
Gb|-0---0---0----|
Db|-x---x---x----|
Ab|-10--9---7----|
Eb|-0---0---0----|

and then continue with the variations of C, B, a normal Am and this Dsus, just the same as in the bridge! strumming you have to figure out on your own ;)

good luck!

0 reply
THEKapow 30 Oct 24, 2008 02:44 PM

Can i just ask...

At 2:13 a section of the song starts with the lyrics "Could you suffer" this plays up till 2:31


Has any one tabbed this part or am i being stupid?

guest
You may want to rate the tab now too:
select rating
Wanna post a correction for this tab? Suggest correction