Oops, an error
Loading. Please wait.

Lostboy Tab

version 2
version 2

Whole song

6,269 views 3 this week
no commentswrite comment
1 2 3 4 5
accurate
x 3
add to favorites
launch autoscroll
font size
0
reset
how to read this tab
guitar tuner
Autoscroll
slow
fast
+/-
esc
set tempo
stop
Help us to improve Ultimate-Guitar.com Take our survey!
×
Author
Lostboy by The Subways

e|-----3-------------7--------|
B|-----3-------------5--------|
G|-----0-------------0--------| x4
D|-----0----------------------|
A|--------------7-7----7-7-7--|
E|-3-3---3-3-3--0-0----0-0-0--|

e|-------------------0------------0------------0------------0-------|
B|-3--3-3--3-3-------1------------1------------2------------2-------|
G|-0--0-0--0-0-------2------------2------------3------------3-------|
D|-2--2-2--0-0---2-2---2-2-2--2-2---2-2-2--0-0---0-0-0--0-0---0-0-0-|
A|-3--3-3--2-2---0-0---0-0-0--0-0---0-0-0--0-0---0-0-0--0-0---0-0-0-|
E|------------------------------------------------------------------|

e|-------------------------------------------------|
B|---------10---------------10------------8--------|
G|---------0----------------0-------------0--------|
D|-------------------------------------------------|
A|---10-10----10-10-10--9-9----9-9-9--7-7---7-7-7--|
E|-------------------------------------------------|

e|--------------------0------------0-------|
B|-3--3-3--3--3-------1------------1-------|
G|-0--0-0--0--0-------2------------2-------|
D|-2--2-2--0--0---2-2---2-2-2--2-2---2-2-2-|
A|-3--3-3--2--2---0-0---0-0-0--0-0---0-0-0-|
E|-----------------------------------------|

e|--------------------0------------0------------0------------0-------|
B|-3--3-3--3--3-------2------------2------------2------------2-------|
G|-0--0-0--0--0-------3------------3------------3------------3-------|
D|-2--2-2--0--0---0-0---0-0-0--0-0---0-0-0--0-0---0-0-0--0-0---0-0-0-|
A|-3--3-3--2--2---0-0---0-0-0--0-0---0-0-0--0-0---0-0-0--0-0---0-0-0-|
E|-------------------------------------------------------------------|

e|-----3-------------7--------|
B|-----3-------------5--------|
G|-----0-------------0--------| x4
D|-----0----------------------|
A|--------------7-7----7-7-7--|
E|-3-3---3-3-3--0-0----0-0-0--|

I have rated this intermediate as some of the chord positions are a little tricky to get into

Lyrics:

It was so odd
The way we came about
The way we locked out horns
We fell apart and glued our hearts together
It was so fun
The way you laughed at me
'cos everything I said
It always came out wrong

And we fell asleep
'cus there's nothing else left to do
And I couldn't keep what's inside
I had to show you

I was a lostboy that was found
Drowning underwater
Smothered by the pressure
I was a lost toy now I'm found
You patched me back together
Sewing up the leather on my arms
On my arms

It was you and only me
It was so hard. To see you shivering
To see you frosting up
O we locked our arms and shard the warmth together
It was so dark
But you just shrugged it off
You turned to me and said thank god we're going home

And we fell asleep
'cus there's nowhere else to go
And I couldn't keep what's inside
I had to let you know

It was you and only me

Could you
Suffer
Waiting
Longer
Lonely
For me
We could make our way though the mire

It was you and only me.
Suggest correction
What's this?
You can suggest a correction to this tab. Community and Mods will review your correction and vote to approve or reject it.
comments
We did not receive enough feedback on this tab! Please rate:
print report bad tab
1 2 3 4 5
guest
You may want to rate the tab now too:
select rating
Please do not post tabs as comments. Select "correction" instead!