Oops, an error
Loading. Please wait.

Mary Tab

version 1
version 1

Whole song

Interactive

25,821 views 42 this week
4 commentsread comments
1 2 3 4 5
excellent!
x 16
add to favorites
launch autoscroll
font size
0
reset
how to read this tab
guitar tuner
Tab Pro tools
  • play this tab
  • loop segment
  • change instrument
  • show fretboard
  • metronome
×
Best way to learn
"Mary"
Autoscroll
slow
fast
+/-
esc
set tempo
stop
Contributor
Artist: The Subways
Song: Mary
Album: Young For Eternity
Tuning: Standard - E A D G B E
Tabbed By James Morris

For this song, I have tabbed the complete guitar 1 tab first, then
the complete guitar 2 tab after. 

==========================
Guitar 1 (Acoustic-Rhythm)

Intro (Not correct rhythm)
  C            Am
E|---0-----0-------|
B|-1-1-111-1-1-1-1-|
G|-0-0-000-0-0-2-2-|
D|-2-2-222-2-2-2-2-| x4
A|-3-3-333-3-3-0-0-|
E|-----------------|

Verse
  C            Am
E|---0-----0-------|
B|-1-1-111-1-1-1-1-|
G|-0-0-000-0-0-2-2-|
D|-2-2-222-2-2-2-2-| x4
A|-3-3-333-3-3-0-0-|
E|-----------------|

  Em
E|---0-----0-0-0---|
B|-0-0-000-0-0-0-0-|
G|-0-0-000-0-0-0-0-|
D|-2-2-222-2-2-2-2-| x2
A|-2-2-222-2-2-2-2-|
E|-0-0-000-0-0-0-0-|

  F
E|-1-1-111-1-1-1-1-|
B|-1-1-111-1-1-1-1-|
G|-2-2-222-2-2-2-2-|
D|-3-3-333-3-3-3-3-|
A|-----------------|
E|-----------------|

  Fm
E|-4-4-4-4-4~~~~~~~|
B|-6-6-6-6-6~~~~~~~|
G|-5-5-5-5-5~~~~~~~|
D|-3-3-3-3-3~~~~~~~|
A|-----------------|
E|-----------------|

Chorus 
  C                               Am
E|-0-0-0-0-0-0-0-0-0-0-0-0-0-0-0-0-0-0-0-0-0-0-0-0-0-0-0-0-0-0-0-0-|
B|-1-1-1-1-1-1-1-1-1-1-1-1-1-1-1-1-1-1-1-1-1-1-1-1-1-1-1-1-1-1-1-1-|
G|-0-0-0-0-0-0-0-0-0-0-0-0-0-0-0-0-2-2-2-2-2-2-2-2-2-2-2-2-2-2-2-2-|
D|-2-2-2-2-2-2-2-2-2-2-2-2-2-2-2-2-2-2-2-2-2-2-2-2-2-2-2-2-2-2-2-2-| x2
A|-3-3-3-3-3-3-3-3-3-3-3-3-3-3-3-3-0-0-0-0-0-0-0-0-0-0-0-0-0-0-0-0-|
E|-----------------------------------------------------------------|
  F               Fm
E|-1-1-1-1-1-1-1-1-4-4-4-4~~~~-----|
B|-1-1-1-1-1-1-1-1-6-6-6-6~~~~-----|
G|-2-2-2-2-2-2-2-2-5-5-5-5~~~~-----|
D|-3-3-3-3-3-3-3-3-3-3-3-3~~~~-----|
A|-3-3-3-3-3-3-3-3-----------------|
E|---------------------------------|

Bridge
  C            Am
E|---0-----0-------|
B|-1-1-111-1-1-1-1-|
G|-0-0-000-0-0-2-2-|
D|-2-2-222-2-2-2-2-| x4
A|-3-3-333-3-3-0-0-|
E|-----------------|

Verse
  C            Am
E|---0-----0-------|
B|-1-1-111-1-1-1-1-|
G|-0-0-000-0-0-2-2-|
D|-2-2-222-2-2-2-2-| x4
A|-3-3-333-3-3-0-0-|
E|-----------------|

  Em
E|---0-----0-0-0---|
B|-0-0-000-0-0-0-0-|
G|-0-0-000-0-0-0-0-|
D|-2-2-222-2-2-2-2-| x2
A|-2-2-222-2-2-2-2-|
E|-0-0-000-0-0-0-0-|

  F
E|-1-1-111-1-1-1-1-|
B|-1-1-111-1-1-1-1-|
G|-2-2-222-2-2-2-2-|
D|-3-3-333-3-3-3-3-|
A|-----------------|
E|-----------------|

  Fm
E|-4-4-4-4-4~~~~~~~|
B|-6-6-6-6-6~~~~~~~|
G|-5-5-5-5-5~~~~~~~|
D|-3-3-3-3-3~~~~~~~|
A|-----------------|
E|-----------------|

Chorus 
  C                               Am
E|-0-0-0-0-0-0-0-0-0-0-0-0-0-0-0-0-0-0-0-0-0-0-0-0-0-0-0-0-0-0-0-0-|
B|-1-1-1-1-1-1-1-1-1-1-1-1-1-1-1-1-1-1-1-1-1-1-1-1-1-1-1-1-1-1-1-1-|
G|-0-0-0-0-0-0-0-0-0-0-0-0-0-0-0-0-2-2-2-2-2-2-2-2-2-2-2-2-2-2-2-2-|
D|-2-2-2-2-2-2-2-2-2-2-2-2-2-2-2-2-2-2-2-2-2-2-2-2-2-2-2-2-2-2-2-2-| x2
A|-3-3-3-3-3-3-3-3-3-3-3-3-3-3-3-3-0-0-0-0-0-0-0-0-0-0-0-0-0-0-0-0-|
E|-----------------------------------------------------------------|
  F               Fm
E|-1-1-1-1-1-1-1-1-4-4-4-4~~~~-----|
B|-1-1-1-1-1-1-1-1-6-6-6-6~~~~-----|
G|-2-2-2-2-2-2-2-2-5-5-5-5~~~~-----|
D|-3-3-3-3-3-3-3-3-3-3-3-3~~~~-----|
A|-3-3-3-3-3-3-3-3-----------------|
E|---------------------------------|

Interlude 
  Am               F            G
E|-0-0-0-0-0-0-0-0-1-1-1-1-1-1-1-3-|
B|-1-1-1-1-1-1-1-1-1-1-1-1-1-1-1-3-|
G|-2-2-2-2-2-2-2-2-2-2-2-2-2-2-2-0-|
D|-2-2-2-2-2-2-2-2-3-3-3-3-3-3-3-0-| x2
A|-0-0-0-0-0-0-0-0---------------2-|
E|-------------------------------3-|

E|-0-0-0-0-0-0-0-0-1-1-1-1-1-1-1-1-|
B|-0-0-0-0-0-0-0-0-1-1-1-1-1-1-1-1-|
G|-0-0-0-0-0-0-0-0-2-2-2-2-2-2-2-2-| x2
D|-2-2-2-2-2-2-2-2-3-3-3-3-3-3-3-3-|
A|-2-2-2-2-2-2-2-2-----------------|
E|-0-0-0-0-0-0-0-0-----------------|

Solo
  C                               Am
E|-0-0-0-0-0-0-0-0-0-0-0-0-0-0-0-0-0-0-0-0-0-0-0-0-0-0-0-0-0-0-0-0-|
B|-1-1-1-1-1-1-1-1-1-1-1-1-1-1-1-1-1-1-1-1-1-1-1-1-1-1-1-1-1-1-1-1-|
G|-0-0-0-0-0-0-0-0-0-0-0-0-0-0-0-0-2-2-2-2-2-2-2-2-2-2-2-2-2-2-2-2-|
D|-2-2-2-2-2-2-2-2-2-2-2-2-2-2-2-2-2-2-2-2-2-2-2-2-2-2-2-2-2-2-2-2-| x2
A|-3-3-3-3-3-3-3-3-3-3-3-3-3-3-3-3-0-0-0-0-0-0-0-0-0-0-0-0-0-0-0-0-|
E|-----------------------------------------------------------------|
  F               Fm
E|-1-1-1-1-1-1-1-1-4--4--4---------|
B|-1-1-1-1-1-1-1-1-6--6--6---------|
G|-2-2-2-2-2-2-2-2-5--5--5---------|
D|-3-3-3-3-3-3-3-3-3--3--3---------|
A|-3-3-3-3-3-3-3-3-----------------|
E|---------------------------------|

Chorus
  C                               Am
E|-0-0-0-0-0-0-0-0-0-0-0-0-0-0-0-0-0-0-0-0-0-0-0-0-0-0-0-0-0-0-0-0-|
B|-1-1-1-1-1-1-1-1-1-1-1-1-1-1-1-1-1-1-1-1-1-1-1-1-1-1-1-1-1-1-1-1-|
G|-0-0-0-0-0-0-0-0-0-0-0-0-0-0-0-0-2-2-2-2-2-2-2-2-2-2-2-2-2-2-2-2-|
D|-2-2-2-2-2-2-2-2-2-2-2-2-2-2-2-2-2-2-2-2-2-2-2-2-2-2-2-2-2-2-2-2-| x2
A|-3-3-3-3-3-3-3-3-3-3-3-3-3-3-3-3-0-0-0-0-0-0-0-0-0-0-0-0-0-0-0-0-|
E|-----------------------------------------------------------------|
  F               Fm
E|-1-1-1-1-1-1-1-1-4-4-4-4~~~~-----|
B|-1-1-1-1-1-1-1-1-6-6-6-6~~~~-----|
G|-2-2-2-2-2-2-2-2-5-5-5-5~~~~-----|
D|-3-3-3-3-3-3-3-3-3-3-3-3~~~~-----|
A|-3-3-3-3-3-3-3-3-----------------|
E|---------------------------------|

End On
E|-0~~-|
B|-1~~-|
G|-0~~-|
D|-2~~-|
A|-3~~-|
E|-----|

========================
Guitar 2 (Electric-Lead)

Intro 
E|-----------------|
B|-----------------|
G|-----------------|
D|-----------------| x4
A|-----------------|
E|-----------------|

Verse
E|---0---0---0---0-|
B|---1---1---1---1-|
G|---0---0---0---2-| x4
D|---2---2---2---2-|
A|-----------------|
E|-----------------|

E|---0---0---0---0-|
B|---0---0---0---0-|
G|---0---0---0---0-|
D|---2---2---2---2-| x2
A|-----------------|
E|-----------------|

E|---1---1---1---1-|
B|---1---1---1---1-|
G|---2---2---2---2-|
D|-----------------|
A|-----------------|
E|-----------------|

E|-4-4-4-4-4~~~~~~~|
B|-6-6-6-6-6~~~~~~~|
G|-5-5-5-5-5~~~~~~~|
D|-----------------|
A|-----------------|
E|-----------------|

Chorus 
  C                               Am
E|-0-0-0-0-0-0-0-0-0-0-0-0-0-0-0-0-0-0-0-0-0-0-0-0-0-0-0-0-0-0-0-0-|
B|-1-1-1-1-1-1-1-1-1-1-1-1-1-1-1-1-1-1-1-1-1-1-1-1-1-1-1-1-1-1-1-1-|
G|-0-0-0-0-0-0-0-0-0-0-0-0-0-0-0-0-2-2-2-2-2-2-2-2-2-2-2-2-2-2-2-2-|
D|-2-2-2-2-2-2-2-2-2-2-2-2-2-2-2-2-2-2-2-2-2-2-2-2-2-2-2-2-2-2-2-2-| x2
A|-3-3-3-3-3-3-3-3-3-3-3-3-3-3-3-3-0-0-0-0-0-0-0-0-0-0-0-0-0-0-0-0-|
E|-----------------------------------------------------------------|
  F               Fm
E|-1-1-1-1-1-1-1-1-4-4-4-4~~~~-----|
B|-1-1-1-1-1-1-1-1-6-6-6-6~~~~-----|
G|-2-2-2-2-2-2-2-2-5-5-5-5~~~~-----|
D|-3-3-3-3-3-3-3-3-3-3-3-3~~~~-----|
A|-3-3-3-3-3-3-3-3-----------------|
E|---------------------------------|

Bridge
E|---0---0---0---0-|
B|---1---1---1---1-|
G|---0---0---0---2-| x4
D|---2---2---2---2-|
A|-----------------|
E|-----------------|

Verse
E|---0---0---0---0-|
B|---1---1---1---1-|
G|---0---0---0---2-| x4
D|---2---2---2---2-|
A|-----------------|
E|-----------------|

E|---0---0---0---0-|
B|---0---0---0---0-|
G|---0---0---0---0-|
D|---2---2---2---2-| x2
A|-----------------|
E|-----------------|

E|---1---1---1---1-|
B|---1---1---1---1-|
G|---2---2---2---2-|
D|-----------------|
A|-----------------|
E|-----------------|

E|-4-4-4-4-4~~~~~~~|
B|-6-6-6-6-6~~~~~~~|
G|-5-5-5-5-5~~~~~~~|
D|-----------------|
A|-----------------|
E|-----------------|

Chorus 
  C                               Am
E|-0-0-0-0-0-0-0-0-0-0-0-0-0-0-0-0-0-0-0-0-0-0-0-0-0-0-0-0-0-0-0-0-|
B|-1-1-1-1-1-1-1-1-1-1-1-1-1-1-1-1-1-1-1-1-1-1-1-1-1-1-1-1-1-1-1-1-|
G|-0-0-0-0-0-0-0-0-0-0-0-0-0-0-0-0-2-2-2-2-2-2-2-2-2-2-2-2-2-2-2-2-|
D|-2-2-2-2-2-2-2-2-2-2-2-2-2-2-2-2-2-2-2-2-2-2-2-2-2-2-2-2-2-2-2-2-| x2
A|-3-3-3-3-3-3-3-3-3-3-3-3-3-3-3-3-0-0-0-0-0-0-0-0-0-0-0-0-0-0-0-0-|
E|-----------------------------------------------------------------|
  F               Fm
E|-1-1-1-1-1-1-1-1-4-4-4-4~~~~-----|
B|-1-1-1-1-1-1-1-1-6-6-6-6~~~~-----|
G|-2-2-2-2-2-2-2-2-5-5-5-5~~~~-----|
D|-3-3-3-3-3-3-3-3-3-3-3-3~~~~-----|
A|-3-3-3-3-3-3-3-3-----------------|
E|---------------------------------|

Interlude
E|---0---0---0---0---1---1---1---3-|
B|---1---1---1---1---1---1---1---3-|
G|---2---2---2---2---2---2---2---4-|
D|---2---2---2---2---3---3---3---5-| x2
A|---------------------------------|
E|---------------------------------|

E|---0-0-0---0---0-1-1-1-1-1-1-1-1-|
B|---0-0-0---0---0-1-1-1-1-1-1-1-1-|
G|---0-0-0---0---0-2-2-2-2-2-2-2-2-| x2
D|---2-2-2---2---2-3-3-3-3-3-3-3-3-|
A|---------------------------------|
E|---------------------------------|

Solo
E|-----------------------------5~-5------------5------------|
B|---------------------5---5-8------5------------5----------|
G|-------------5---5-7---7------------5-7-5~-5-----5-7-5~-5-|
D|-----5---5-7---7------------------------------------------|
A|-5-7---7--------------------------------------------------|
E|----------------------------------------------------------|

E|-----------------------------5~-5------------5------------|
B|---------------------5---5-8------5------------5----------|
G|-------------5---5-7---7------------5-7-5~-5-----5-7-5~---|
D|-----5---5-7---7------------------------------------------|
A|-5-7---7--------------------------------------------------|
E|----------------------------------------------------------|

E|-1-1-1-1-1-1-1-1-4--4--4---------|
B|-1-1-1-1-1-1-1-1-6--6--6---------|
G|-2-2-2-2-2-2-2-2-5--5--5---------|
D|-3-3-3-3-3-3-3-3-3--3--3---------|
A|-3-3-3-3-3-3-3-3-----------------|
E|---------------------------------|

Chorus 
  C                               Am
E|-0-0-0-0-0-0-0-0-0-0-0-0-0-0-0-0-0-0-0-0-0-0-0-0-0-0-0-0-0-0-0-0-|
B|-1-1-1-1-1-1-1-1-1-1-1-1-1-1-1-1-1-1-1-1-1-1-1-1-1-1-1-1-1-1-1-1-|
G|-0-0-0-0-0-0-0-0-0-0-0-0-0-0-0-0-2-2-2-2-2-2-2-2-2-2-2-2-2-2-2-2-|
D|-2-2-2-2-2-2-2-2-2-2-2-2-2-2-2-2-2-2-2-2-2-2-2-2-2-2-2-2-2-2-2-2-| x2
A|-3-3-3-3-3-3-3-3-3-3-3-3-3-3-3-3-0-0-0-0-0-0-0-0-0-0-0-0-0-0-0-0-|
E|-----------------------------------------------------------------|
  F               Fm
E|-1-1-1-1-1-1-1-1-4-4-4-4~~~~-----|
B|-1-1-1-1-1-1-1-1-6-6-6-6~~~~-----|
G|-2-2-2-2-2-2-2-2-5-5-5-5~~~~-----|
D|-3-3-3-3-3-3-3-3-3-3-3-3~~~~-----|
A|-3-3-3-3-3-3-3-3-----------------|
E|---------------------------------|

End On
E|-0~~-|
B|-1~~-|
G|-0~~-|
D|-2~~-|
A|-----|
E|-----|

================
Guitar 3 (Piano)

Second Verse
E|-----------------|    |-----------------|    
B|-----------------|    |-----------------|    
G|-------------9-9-| x4 |-----------------| x4 
D|-5-5-5-5-5-5-7-7-|    |-9-9-9-9-9-9-9-9-|    
A|-3-3-3-3-3-3-----|    |-7-7-7-7-7-7-7-7-|    
E|-----------------|    |-----------------|    

E|-----------------------------|
B|-----------------------------|
G|-----------------------------|
D|1010101010101010-6-6-6-6-6~~-|
A|-8-8-8-8-8-8-8-8-8-8-8-8-8~~-|
E|-----------------------------|

End. Rate and comment.
comments
print report bad tab
4 comments total. Showing first comments.
0 reply
Conko wrote on May 30 2006, 03:30 pm

kick ass dude all your subways tabs are spot on, rock on

0 reply
shadypinoy28 wrote on August 13 2006, 05:44 pm

this is really good dude. i like the solo

0 reply
lukeekul wrote on October 12 2008, 03:56 pm

spot on - for this i give you five stars

I want to post or [tab]
guest
You may want to rate the tab now too:
select rating
Please do not post tabs as comments. Select "correction" instead!