Oops, an error
Loading. Please wait.

Mary Bass Tab

version 2
version 2

Whole song

Interactive

1,699 views 1 this week
no commentswrite comment
1 2 3 4 5
please rate
add to favorites
launch autoscroll
font size
0
reset
guitar tuner
Autoscroll
slow
fast
+/-
esc
set tempo
stop
Help us to improve Ultimate-Guitar.com Take our survey!
×
Author
-------------------------------------------------------------------------------
			                           MARY - The Subways
-------------------------------------------------------------------------------

Tabbed By : staubfinger 
e-mail: saph1ra@web.de

Chorus
|---------------------------------------------------------------------------|
|---------------------------------------------------------------------------|
|3-3-3-3/10-10-12-12--3-3-3-3/10-10-12-12--------7-7-5-5----------7-7-5-5---|
|------------------------------------------5-5-5----------5-5-5-5-----------|

Chorus continued
|---------------------------------------------------------------------------|
|---------------------10-10-12-12-14-12-10----------------------------------|
|3-3-3-3/10-10-12-12----------------------12--------7-7-5-5---------7-7-5-5-|
|-------------------------------------------5-5-5-5---------5-5-5-5---------|

Chorus continued
|---------------------------|
|-3-3-3-3-3-3-3-3-3-3-3-3-3-|
|---------------------------|
|---------------------------|

Verse
|--------------------|x6-------------------------------------------|
|--------------------|---------------------10-10-12-12-14-12-10----|
|-3-3-3-3/10-10-12-12|-3-3-3-3/10-10-12-12----------------------12-|
|--------------------|---------------------------------------------|

|-----------------------------------------------------------------|
|-2-2-2-2-2-2-2-2-2-2-2-2-2-2-2-2-3-3-3-3-3-3-3-3-3-3-3-3-3-3-3-3-|
|-----------------------------------------------------------------|
|-----------------------------------------------------------------|

Chorus

Bridge                         x2
|-2-2-2-2-2-2-2-2---------------0|-------------------------------x2|
|-----------------3-3-3-3-3-3-3--|-2-2-2-2-2-2-2-2-3-3-3-3-3-3-3-3-|
|--------------------------------|---------------------------------|
|--------------------------------|---------------------------------|

Solo=Chorus

Chorus

Outro
|-----|
|-----|
|-5/3-|
|-----|


| /  slide up
| \  slide down
| h  hammer-on
| p  pull-off
| ~  vibrato
| +  harmonic
| x  Mute note
===============================================================================
Suggest correction
What's this?
You can suggest a correction to this tab. Community and Mods will review your correction and vote to approve or reject it.
comments
We did not receive enough feedback on this tab! Please rate:
print report bad tab
1 2 3 4 5
guest
You may want to rate the tab now too:
select rating
Please do not post tabs as comments. Select "correction" instead!