Oops, an error
Loading. Please wait.

No Goodbyes Tab

7,188 views 1 this week
1 commentread comment
1 2 3 4 5
accurate
x 7
add to favorites
launch autoscroll
font size
0
reset
how to read this tab
guitar tuner
Tab Pro tools
  • play this tab
  • loop segment
  • change instrument
  • show fretboard
  • metronome
×
Best way to learn
"No Goodbyes"
Autoscroll
slow
fast
+/-
esc
set tempo
stop
Contributor
Difficulty
novice
Artist: The Subways
Song: No Goodbyes
Album: Young For Eternity
Tuning: Standard - E A D G B E
Tabbed By James Morris

Intro
E|-0--0-0-3-3-3-3-0--0-0-3-3-3-3-0--0-0-3-3-3-3-0---0-0-3-3-3-3-|
B|-1--1-1-3-3-3-3-1--1-1-3-3-3-3-1--1-1-3-3-3-3-1---1-1-3-3-3-3-|
G|-2--2-2-0-0-0-0-2--2-2-0-0-0-0-2--2-2-0-0-0-0-2---2-2-0-0-0-0-|
D|-2--2-2-0-0-0-0-2--2-2-0-0-0-0-2--2-2-0-0-0-0-2---2-2-0-0-0-0-| x2
A|-0--0-0-x-x-x-x-0--0-0-x-x-x-x-0--0-0-x-x-x-x-0---0-0-x-x-x-x-|
E|--------3-3-3-3--------3-3-3-3--------3-3-3-3---------3-3-3-3-|

Verse 
     'I can see the light behind your ey—es'...
E|-0--0-0-3-3-3-3-0--0-0-3-3-3-3-0--0-0-3-3-3-3-0---0-0-3-3-3-3-|
B|-1--1-1-3-3-3-3-1--1-1-3-3-3-3-1--1-1-3-3-3-3-1---1-1-3-3-3-3-|
G|-2--2-2-0-0-0-0-2--2-2-0-0-0-0-2--2-2-0-0-0-0-2---2-2-0-0-0-0-|
D|-2--2-2-0-0-0-0-2--2-2-0-0-0-0-2--2-2-0-0-0-0-2---2-2-0-0-0-0-| x2
A|-0--0-0-x-x-x-x-0--0-0-x-x-x-x-0--0-0-x-x-x-x-0---0-0-x-x-x-x-|
E|--------3-3-3-3--------3-3-3-3--------3-3-3-3---------3-3-3-3-|

Chorus
         'With every single day      we'll never feel the same'...
E|-0-0-0-0-0-0-0-0-0-0-0-0-0-0-0-0-2-2-2-2-2-2-2-2-2-2-2-2-2-2-2-2-|
B|-1-1-1-1-1-1-1-1-1-1-1-1-1-1-1-1-3-3-3-3-3-3-3-3-3-3-3-3-3-3-3-3-|
G|-0-0-0-0-0-0-0-0-0-0-0-0-0-0-0-0-2-2-2-2-2-2-2-2-2-2-2-2-2-2-2-2-|
D|-2-2-2-2-2-2-2-2-2-2-2-2-2-2-2-2-0-0-0-0-0-0-0-0-0-0-0-0-0-0-0-0-|
A|-3-3-3-3-3-3-3-3-3-3-3-3-3-3-3-3---------------------------------|
E|-----------------------------------------------------------------|

E|-0-0-0-0-0-0-0-0-0-0-0-0-0-0-0-0-2-2-2-2-2-2-2-2-2-2-2-2-2-2-2-2-|
B|-1-1-1-1-1-1-1-1-1-1-1-1-1-1-1-1-3-3-3-3-3-3-3-3-3-3-3-3-3-3-3-3-|
G|-0-0-0-0-0-0-0-0-0-0-0-0-0-0-0-0-2-2-2-2-2-2-2-2-2-2-2-2-2-2-2-2-|
D|-2-2-2-2-2-2-2-2-2-2-2-2-2-2-2-2-0-0-0-0-0-0-0-0-0-0-0-0-0-0-0-0-|
A|-3-3-3-3-3-3-3-3-3-3-3-3-3-3-3-3---------------------------------|
E|-----------------------------------------------------------------|

Verse
E|-0--0-0-3-3-3-3-0--0-0-3-3-3-3-0--0-0-3-3-3-3-0---0-0-3-3-3-3-|
B|-1--1-1-3-3-3-3-1--1-1-3-3-3-3-1--1-1-3-3-3-3-1---1-1-3-3-3-3-|
G|-2--2-2-0-0-0-0-2--2-2-0-0-0-0-2--2-2-0-0-0-0-2---2-2-0-0-0-0-|
D|-2--2-2-0-0-0-0-2--2-2-0-0-0-0-2--2-2-0-0-0-0-2---2-2-0-0-0-0-| x4
A|-0--0-0-x-x-x-x-0--0-0-x-x-x-x-0--0-0-x-x-x-x-0---0-0-x-x-x-x-|
E|--------3-3-3-3--------3-3-3-3--------3-3-3-3---------3-3-3-3-|

Chorus
'With every single day      we'll never feel the same'...
E|-0-0-0-0-0-0-0-0-0-0-0-0-0-0-0-0-2-2-2-2-2-2-2-2-2-2-2-2-2-2-2-2-|
B|-1-1-1-1-1-1-1-1-1-1-1-1-1-1-1-1-3-3-3-3-3-3-3-3-3-3-3-3-3-3-3-3-|
G|-0-0-0-0-0-0-0-0-0-0-0-0-0-0-0-0-2-2-2-2-2-2-2-2-2-2-2-2-2-2-2-2-|
D|-2-2-2-2-2-2-2-2-2-2-2-2-2-2-2-2-0-0-0-0-0-0-0-0-0-0-0-0-0-0-0-0-|
A|-3-3-3-3-3-3-3-3-3-3-3-3-3-3-3-3---------------------------------|
E|-----------------------------------------------------------------|

E|-0-0-0-0-0-0-0-0-0-0-0-0-0-0-0-0-2-2-2-2-2-2-2-2-2-2-2-2-2-2-2-2-|
B|-1-1-1-1-1-1-1-1-1-1-1-1-1-1-1-1-3-3-3-3-3-3-3-3-3-3-3-3-3-3-3-3-|
G|-0-0-0-0-0-0-0-0-0-0-0-0-0-0-0-0-2-2-2-2-2-2-2-2-2-2-2-2-2-2-2-2-|
D|-2-2-2-2-2-2-2-2-2-2-2-2-2-2-2-2-0-0-0-0-0-0-0-0-0-0-0-0-0-0-0-0-|
A|-3-3-3-3-3-3-3-3-3-3-3-3-3-3-3-3---------------------------------|
E|-----------------------------------------------------------------|
 

Middle Section
      'Tell me,        tell me   there's no goodbyes'
E|-0--0-0-3-3-3-3-0--0-0-3-3-3-3-0--0-0-3-3-3-3-0---0-0-3-3-3-3-|
B|-1--1-1-3-3-3-3-1--1-1-3-3-3-3-1--1-1-3-3-3-3-1---1-1-3-3-3-3-|
G|-2--2-2-0-0-0-0-2--2-2-0-0-0-0-2--2-2-0-0-0-0-2---2-2-0-0-0-0-|
D|-2--2-2-0-0-0-0-2--2-2-0-0-0-0-2--2-2-0-0-0-0-2---2-2-0-0-0-0-| x4
A|-0--0-0-x-x-x-x-0--0-0-x-x-x-x-0--0-0-x-x-x-x-0---0-0-x-x-x-x-|
E|--------3-3-3-3--------3-3-3-3--------3-3-3-3---------3-3-3-3-|

      'Oh no'
E|-2-2-2-2-2-2-2-2-2-2-2-2-2-2-2-2-|
B|-3-3-3-3-3-3-3-3-3-3-3—3-3-3-3-3-|
G|-2-2-2-2-2-2-2-2-2-2-2-2-2-2-2-2-|
D|-0-0-0-0-0-0-0-0-0-0-0-0-0-0-0-0-|
A|---------------------------------|
E|---------------------------------|

Bridge
E|-0--0-0-3-3-3-3-0--0-0-3-3-3-3-0--0-0-3-3-3-3-0---0-0-3-3-3-3-|
B|-1--1-1-3-3-3-3-1--1-1-3-3-3-3-1--1-1-3-3-3-3-1---1-1-3-3-3-3-|
G|-2--2-2-0-0-0-0-2--2-2-0-0-0-0-2--2-2-0-0-0-0-2---2-2-0-0-0-0-|
D|-2--2-2-0-0-0-0-2--2-2-0-0-0-0-2--2-2-0-0-0-0-2---2-2-0-0-0-0-| x4
A|-0--0-0-x-x-x-x-0--0-0-x-x-x-x-0--0-0-x-x-x-x-0---0-0-x-x-x-x-|
E|--------3-3-3-3--------3-3-3-3--------3-3-3-3---------3-3-3-3-|

Chorus
'With every single day      we'll never feel the same'...
E|-0-0-0-0-0-0-0-0-0-0-0-0-0-0-0-0-2-2-2-2-2-2-2-2-2-2-2-2-2-2-2-2-|
B|-1-1-1-1-1-1-1-1-1-1-1-1-1-1-1-1-3-3-3-3-3-3-3-3-3-3-3-3-3-3-3-3-|
G|-0-0-0-0-0-0-0-0-0-0-0-0-0-0-0-0-2-2-2-2-2-2-2-2-2-2-2-2-2-2-2-2-|
D|-2-2-2-2-2-2-2-2-2-2-2-2-2-2-2-2-0-0-0-0-0-0-0-0-0-0-0-0-0-0-0-0-|
A|-3-3-3-3-3-3-3-3-3-3-3-3-3-3-3-3---------------------------------|
E|-----------------------------------------------------------------|

E|-0-0-0-0-0-0-0-0-0-0-0-0-0-0-0-0-2-2-2-2-2-2-2-2-2-2-2-2-2-2-2-2-|
B|-1-1-1-1-1-1-1-1-1-1-1-1-1-1-1-1-3-3-3-3-3-3-3-3-3-3-3-3-3-3-3-3-|
G|-0-0-0-0-0-0-0-0-0-0-0-0-0-0-0-0-2-2-2-2-2-2-2-2-2-2-2-2-2-2-2-2-|
D|-2-2-2-2-2-2-2-2-2-2-2-2-2-2-2-2-0-0-0-0-0-0-0-0-0-0-0-0-0-0-0-0-|
A|-3-3-3-3-3-3-3-3-3-3-3-3-3-3-3-3---------------------------------|
E|-----------------------------------------------------------------|

Middle Section
      'Tell me,        tell me   there's no goodbyes'
E|-0--0-0-3-3-3-3-0--0-0-3-3-3-3-0--0-0-3-3-3-3-0---0-0-3-3-3-3-|
B|-1--1-1-3-3-3-3-1--1-1-3-3-3-3-1--1-1-3-3-3-3-1---1-1-3-3-3-3-|
G|-2--2-2-0-0-0-0-2--2-2-0-0-0-0-2--2-2-0-0-0-0-2---2-2-0-0-0-0-|
D|-2--2-2-0-0-0-0-2--2-2-0-0-0-0-2--2-2-0-0-0-0-2---2-2-0-0-0-0-| x4
A|-0--0-0-x-x-x-x-0--0-0-x-x-x-x-0--0-0-x-x-x-x-0---0-0-x-x-x-x-|
E|--------3-3-3-3--------3-3-3-3--------3-3-3-3---------3-3-3-3-|

      'Oh no'
E|-2-2-2-2-2-2-2-2-2-2-2-2-2-2-2-2-|
B|-3-3-3-3-3-3-3-3-3-3-3—3-3-3-3-3-|
G|-2-2-2-2-2-2-2-2-2-2-2-2-2-2-2-2-|
D|-0-0-0-0-0-0-0-0-0-0-0-0-0-0-0-0-|
A|---------------------------------|
E|---------------------------------|

Outro
Guitar 1
E|-0--0-0-3-3-3-3-0--0-0-3-3-3-3-0--0-0-3-3-3-3-0---0-0-3-3-3-3-|
B|-1--1-1-3-3-3-3-1--1-1-3-3-3-3-1--1-1-3-3-3-3-1---1-1-3-3-3-3-|
G|-2--2-2-0-0-0-0-2--2-2-0-0-0-0-2--2-2-0-0-0-0-2---2-2-0-0-0-0-|
D|-2--2-2-0-0-0-0-2--2-2-0-0-0-0-2--2-2-0-0-0-0-2---2-2-0-0-0-0-| 
A|-0--0-0-x-x-x-x-0--0-0-x-x-x-x-0--0-0-x-x-x-x-0---0-0-x-x-x-x-|
E|--------3-3-3-3--------3-3-3-3--------3-3-3-3---------3-3-3-3-|
Guitar 2        
E|--------------------------------------------------------3---3-|
B|--------------------------------------------------------3---3-|
G|--------------------------------------------------------0---0-|
D|--------------------------------------------------------0---0-|
A|--------------------------------------------------------x---x-|
E|--------------------------------------------------------3---3-|

Guitar 1
E|-0--0-0-3-3-3-3-0--0-0-3-3-3-3-0--0-0-3-3-3-3-0---0-0-3-3-3-3-|
B|-1--1-1-3-3-3-3-1--1-1-3-3-3-3-1--1-1-3-3-3-3-1---1-1-3-3-3-3-|
G|-2--2-2-0-0-0-0-2--2-2-0-0-0-0-2--2-2-0-0-0-0-2---2-2-0-0-0-0-|
D|-2--2-2-0-0-0-0-2--2-2-0-0-0-0-2--2-2-0-0-0-0-2---2-2-0-0-0-0-| 
A|-0--0-0-x-x-x-x-0--0-0-x-x-x-x-0--0-0-x-x-x-x-0---0-0-x-x-x-x-|
E|--------3-3-3-3--------3-3-3-3--------3-3-3-3---------3-3-3-3-|

Guitar 2        
E|--------------------------------------------------------------|
B|--------------------------------------------------------------|
G|--------------------------------------------------------------|
D|--------------------------------------------------------------|
A|--------------------------------------------------------------|
E|--------------------------------------------------------------|

End On.
E|-0~~~~~~-|
B|-1~~~~~~-|
G|-2~~~~~~-|
D|-2~~~~~~-|
A|-0~~~~~~-|
E|---------|

End.
comments
print report bad tab
1 comment total.
0 reply
Supadude wrote on March 18 2007, 11:19 am

are they changing tuning all the time or only in acoustic songs?

I want to post or [tab]
guest
You may want to rate the tab now too:
select rating
Please do not post tabs as comments. Select "correction" instead!