Oops, an error
Loading. Please wait.

No Goodbyes Bass Tab

version 2
version 2

Whole song

491 views 1 this week
no commentswrite comment
1 2 3 4 5
please rate
add to favorites
launch autoscroll
font size
0
reset
guitar tuner
Autoscroll
slow
fast
+/-
esc
set tempo
stop
Help us to improve Ultimate-Guitar.com Take our survey!
×
-------------------------------------------------------------------------------
			     No Goodbyes - The Subways
-------------------------------------------------------------------------------

Tabbed By : H.T


Tuning: Normal

Intro, verses and guitar solo:

G|-------------------------------------------------------------------------|
D|-------------------------------------------------------------------------|
A|--------------------------------------5-3--------------------------------|
E|-5-55-3-33--5-55-3-33-5-55-3-33-5-5-3------------------------------------|

Bridge:

G|-------------------------------------------------------------------------|
D|-------------------9-7-7---9-7-5-----------------------------------------|
A|-3-3-3-3-3-3-3-3-5-------5-------5---------x2----------------------------|
E|-------------------------------------------------------------------------|

Chorus:

G|-------------------------------------------------------------------------|
D|-------4-5---------------------------------------------------------------|
A|-----5------x2------5---0-2-3-5------------------------------------------|
E|-0-3------------0-3---3--------------------------------------------------|

G|-------------------------------------------------------------------------|
D|-------4-5---------------------------------------------------------------|
A|-----5------x2------5---3-2-3-5------------------------------------------|
E|-0-3------------0-3---3--------------------------------------------------|

G|-------------------------------------------------------------------------|
D|-------4-5---------------------------------------------------------------|
A|-----5------x2------5---0-2-3-5------------------------------------------|
E|-0-3------------0-3---3--------------------------------------------------|






| /  slide up
| \  slide down
| h  hammer-on
| p  pull-off
| ~  vibrato
| +  harmonic
| x  Mute note
===============================================================================
Suggest correction
Give kudos to tab author, rate the tab!
1 2 3 4 5
comments
print report bad tab
guest
You may want to rate the tab now too:
select rating
Wanna post a correction for this tab? Suggest correction