Oops, an error
Loading. Please wait.

Oh Yeah Bass Tab

version 1
version 1

Whole song

Interactive

6,844 views 6 this week
1 commentread comment
1 2 3 4 5
accurate
x 5
add to favorites
launch autoscroll
font size
0
reset
guitar tuner
Autoscroll
slow
fast
+/-
esc
set tempo
stop
Help us to improve Ultimate-Guitar.com Take our survey!
×
Contributor
The Subways - Oh Yeah
Tabbed By: Danny Lee
email: fenderbender88@hotmail.co.uk


Tuning:EADG

Intro: (x4)
G|----------------|
D|----------------|
A|-6-6-6---9-9----|
E|-------------9-9|
Verse:                    |    Verse Part 2   | |    Intro  (x2) |
G|--------------------------------------------|G|----------------|
D|--------------------------------------------|D|----------------|
A|-6~--9-8-9-8-6~--9-8-9-8---------------22-44|A|-6-6-6---9-9----|
E|-------------------------22222222-4444------|E|-------------9-9|
                          ^
Then Play again from Verse Part 2
Pre Chorus: start from just before "I will live and i will die"
G|--------------------------------------------|
D|--------------------------------------------|
A|----9-8-9-8-6-6-6-6-6-6-6-6-6-6-6-6-6-6-6-6-|
E|--------------------------------------------|

Chorus:

G|--------------------------------|
D|--------------------------------|
A|-6-6-6-6-4-4-4-4-2-2-2-2-4-4-4-4|
E|--------------------------------|

Intro (x4)
Verse
Pre chorus
Chorus
Intro (x4)
Outro:
G|-------------------------|
D|-------------------------|
A|6~--9-8-9-8-6~--9-8-9-8-6|
E|-------------------------|
comments
print report bad tab
1 comment total.
0 reply
BennyDee 11 wrote on June 16 2005, 12:00 am

Its damn close but it should go

verse
G|---------------------------|-------------------|G|----------------|
D|o-------------------------o|-------------------|D|----------------|
A|o-6~------4-5-6~--9-8-9-8-o|--------------22-44|A|-6-6-6---9-9----|
E|---------------------------|22222222-4444------|E|-------------9-9|

and

Pre chorus
G|--------------------------------------------|
D|--------------------------------------------|
A|----6-4-----6-6-6-6-6-6-6-6-6-6-6-6-4-4-6-6-|
E|--------6-4---------------------------------|


G|--------------------------------------------|
D|--------------------------------------------|
A|----6-6-6-6-6-6-6-6-6-6-6-6-6-6-6-6-6-4-----|
E|----------------------------------------6-4-|

I want to post or [tab]
guest
You may want to rate the tab now too:
select rating
Please do not post tabs as comments. Select "correction" instead!