Oops, an error
Loading. Please wait.

Oh Yeah Tab

version 4
version 4

Whole song

Interactive

9,298 views 3 this week
no commentswrite comment
1 2 3 4 5
excellent!
x 4
add to favorites
launch autoscroll
font size
0
reset
how to read this tab
guitar tuner
Tab Pro tools
  • play this tab
  • loop segment
  • change instrument
  • show fretboard
  • metronome
×
Best way to learn
"Oh Yeah"
Autoscroll
slow
fast
+/-
esc
set tempo
stop
Difficulty
novice
Tuning:Standard
  Intro
e|--------------------------------------------------------------------------|
B|--------------------------------------------------------------------------|
G|-8-8-8-8--11-11-----------------------------------------------------------|
D|-8-8-8-8--11-11--11-11-11-------------------------------------------------|
A|-6-6-6-6--9--9---11-11-11--------x3---------------------------------------|
E|-----------------9--9--9--------------------------------------------------|
  Verse
e|--------------------------------------------------------------------------|
B|--------------------------------------------------------------------------|
G|-8--8---------------8--8--------------------------------------------------|
D|-8--8---------------8--8--------------------------------------------------|
A|-6--6----9-8-6-8----6--6----9-8-6-8---------------------------------------|
E|--------------------------------------------------------------------------|

e|---------------------------------------------------------------------------|
B|---------------------------------------------------------------------------|
G|---------------------------------------------------------------------------|
D|---------------------------4-4-4-4-----------------------------------------|
A|-4-4-4-4-4-4-4-4--6-6-6-6--2-2-2-2-----------------------------------------|
E|-2-2-2-2-2-2-2-2--4-4-4-4--------------------------------------------------|

e|---------------------------------------------------------------------------|
B|---------------------------------------------------------------------------|
G|-8-8-8-8--11-11------------------------------------------------------------|
D|-8-8-8-8--11-11--11-11-----------------------------------------------------|
A|-6-6-6-6--9--9---11-11-----------------------------------------------------|
E|-----------------9--9------------------------------------------------------|

e|--------------------------------------------------------------------------|
B|--------------------------------------------------------------------------|
G|--------------------------------------------------------------------------|
D|---------------------------------4-4-4-4----------------------------------|
A|-4-4-4-4-4-4-4-4-4--6-6-6-6------2-2-2-2----------------------------------|
E|-2-2-2-2-2-2-2-2-2--4-4-4-4-----------------------------------------------|

e|----------------------------------------------|
B|----------------------------------------------|
G|-8-8-8-8--11-11-------------------------------|
D|-8-8-8-8--11-11--11-11------------------------|
A|-6-6-6-6--9--9---11-11------------------------|
E|-----------------9--9-------------------------|  Pre-chorus(First time nothing,Second 
palm mute)
e|----------------------------------------------|
B|----------------------------------------------|
G|-8-8-8-8-8-8-8-8--11-11-11-11--4-4--6-6----8--|
D|-8-8-8-8-8-8-8-8--11-11-11-11--4-4--6-6----8--|
A|-6-6-6-6-6-6-6-6--9--9--9--9---2-2--4-4----6--|
E|----------------------------------------------|
  Chorus
e|--------------------------------------------------------------------------|
B|--------------------------------------------------------------------------|
G|---------6----------------------------------------------------------------|
D|-----6-8---8-6-8--------6-8-------6-8-------------------------------------|
A|-6-9----------------6-9-------6-9-----------------------------------------|
E|--------------------------------------------------------------------------| Then just 
over the once more

end one
e|------------|
B|------------|
G|-8----------|
D|-8----------|
A|-6----------|
E|------------|
There it is a great song to play to,the chorus is real catchy.anyway good luck with that.
comments
print report bad tab
I want to post or [tab]
guest
You may want to rate the tab now too:
select rating
Please do not post tabs as comments. Select "correction" instead!