Oops, an error
Loading. Please wait.

Road To Nowhere Bass Tab

368 views 1 this week
no commentswrite comment
1 2 3 4 5
1 last vote to show rating
add to favorites
launch autoscroll
font size
0
reset
guitar tuner
Autoscroll
slow
fast
+/-
esc
set tempo
stop
Help us to improve Ultimate-Guitar.com Take our survey!
×
Difficulty
novice
This song may be quite hard to get hold of but its out 
there and is a good song pretty easy to play too : ) 
hopefully the tab is all good.

G------------------------------|
D------------------------------|
A------------------------------|
E-4-44-4-4-44-4-4-44-4/16-11-9-|

G-----------------------------|
D-----------------------------|
A-----------------------------|	x2
E-4-44-4-4-44-4-4-44-4-4-44-4-|

G---------------------------------|
D---------------------------------|
A-----------------2-2-2-2-4-4-4---|
E-4-4-4-4-2-2-2-2---------------2-|

G-----------------------------|
D-----------------------------|
A-----------------------------|
E-4-44-4-4-44-4-4-44-4-4-44-4-|

G---------------------------------|
D---------------------------------|
A-----------------2-2-2-2-4-4-4---|
E-4-4-4-4-2-2-2-2---------------2-|

G------------------------------|
D------------------------------|
A------------------------------|
E-4-44-4-4-44-4-4-44-4/16-11-9-|

G-----------------------------|
D-----------------------------|
A-----------------------------|	x2
E-4-44-4-4-44-4-4-44-4-4-44-4-|

G---------------------------------|
D---------------------------------|
A-----------------2-2-2-2-4-4-4---|
E-4-4-4-4-2-2-2-2---------------2-|

G-----------------------------|
D-----------------------------|
A-----------------------------|
E-4-44-4-4-44-4-4-44-4-4-44-4-|

G---------------------------------|
D---------------------------------|
A-----------------2-2-2-2-4-4-4---|
E-4-4-4-4-2-2-2-2---------------2-|

G-----------------------------|
D-----------------------------|
A-----------------------------|
E-4-44-4-4-44-4-4-44-4-4-44-4-|

G--------------------------------------------------------|
D--------------------------------------------------------|
A---------------------------6-6--6-4-4--4-2-2--2---------|
E-7--7--7--7/14--14--14--14----------------------4-4-4-4-|

G---------------------------------------------------------|
D---------------------------------------------------------|
A---------------------------6-6--6-4-4--4-2-2-2-2---------|
E-7--7--7--7/14--14--14--14-----------------------4-4-4-4-|

G-----------------------------|
D-----------------------------|
A-----------------------------|
E-4-44-4-4-44-4-4-44-4-4-44-4-|

G------------------------------|
D------------------------------|
A------------------------------|
E-4-44-4-4-44-4-4-44-4/16-11-9-|

G-----------------------------|
D-----------------------------|
A-----------------------------|	x2
E-4-44-4-4-44-4-4-44-4-4-44-4-|

G---------------------------------|
D---------------------------------|
A-----------------2-2-2-2-4-4-4---|
E-4-4-4-4-2-2-2-2---------------2-|

G-----------------------------|
D-----------------------------|
A-----------------------------|
E-4-44-4-4-44-4-4-44-4-4-44-4-|

G---------------------------------|
D---------------------------------|
A-----------------2-2-2-2-4-4-4---|
E-4-4-4-4-2-2-2-2---------------2-|

G-----------------------------|
D-----------------------------|
A-----------------------------|
E-4-44-4-4-44-4-4-44-4-4-44-4-|

G--------------------------------------------------------|
D--------------------------------------------------------|
A---------------------------6-6--6-4-4--4-2-2--2---------|
E-7--7--7--7/14--14--14--14----------------------4-4-4-4-|

G--------------------------------------------------------|
D--------------------------------------------------------|
A---------------------------6-6--6-4-4--4-2-2--2---------|
E-7--7--7--7/14--14--14--14----------------------4-4-4-4-|

G--------------------------------------------------------|
D--------------------------------------------------------|
A---------------------------6-6--6-4-4--4-2-2--2---------|
E-7--7--7--7/14--14--14--14----------------------4-4-4-4-|

G---------------------------------------------------------|
D---------------------------------------------------------|
A---------------------------6-6--6-4-4--4-2-2-2-2---------|
E-7--7--7--7/14--14--14--14-----------------------4-4-4-4-|

G-----------------------------|
D-----------------------------|
A-----------------------------|
E-4-44-4-4-44-4-4-44-4-4-44-4-|

G------------------------------|
D------------------------------|
A------------------------------|
E-4-44-4-4-44-4-4-44-4/16-11-9-|

G----------|
D----------|
A----------|	x6
E-44444444-|

G-----------------|
D-----------------|
A-----------------|
E-4-44-4-4-44-4-4-|


have fun
big g
Suggest correction
Give kudos to tab author, rate the tab!
1 2 3 4 5
comments
print report bad tab
guest
You may want to rate the tab now too:
select rating
Wanna post a correction for this tab? Suggest correction