Oops, an error
Loading. Please wait.

Rock And Roll Queen Bass Tab

version 2
version 2

Whole song

29,488 views 48 this week
2 commentsread comments
1 2 3 4 5
x 8
add to favorites
launch autoscroll
font size
0
reset
guitar tuner
Autoscroll
slow
fast
+/-
esc
set tempo
stop
Help us to improve Ultimate-Guitar.com Take our survey!
×
Author
Difficulty
novice
Intro is just guitar for a while…

				X4
G-----------------------------------|
D-----------------------------------|
A-6--6-660-4--4-440-----------------|
E------------------6664666466646664-|

				X3
G----------------------------------|
D----------------------------------|
A----------------------------------|
E-66646664666466646664666466646664-

				X3
G-----------------------------------|
D-----------------------------------|
A-6--6-660-4--4-440-----------------|
E------------------6664666466646664-|
					Then on final time     X1
                G-----------------------------------------------|
        D-------------------------------------------------------|
        A-6666666644444444--------------------------------------|
        E-----------------6666666666666666-6--------------------|

Silence whilst only guitar plays then...

				X2
G----------------------------------|
D----------------------------------|
A----------------------------------|
E-66646664666466646664666466646664-

				X3
G-----------------------------------|
D-----------------------------------|
A-6--6-660-4--4-440-----------------|
E------------------6664666466646664-|
						Then on final time     X1
                G------------------------------------|
                D------------------------------------|
        A-6666666644444444---------------------------|
        E-----------------6666666666666666-6~--------|
Suggest correction
comments
print report bad tab
2 comments total.
-2 reply
Misfit66 20 May 21, 2006 01:11 AM

try down-tuning the A to #G, then you can do it all on one string, for the verses it's be like so
G|--------------------------|
D|--------------------------|
G#|-022202220222022202220222|
E|--------------------------|

and the chorus is just moved down a fret
G|-------------------------------------|
D|-------------------------------------|
G#|--7-77-77-0-5-55-55-0222022202220222|
E|-------------------------------------|

now, i know someones gonna say what about the note that's supposed to be the A (A open) well, to put it simply, nobodies gonna notice that you're a playing a note one step too flat ............. unless they're my teeacher, but he dosn't have to know.

0 reply
Zaqq 589 Aug 26, 2013 10:10 AM

Nice, but there are some mistakes. The second chorus ends with:


G-----------------------------------------------|
D-----------------------------------------------|
A-6--6-660-4--4-440-----------------------------|
E------------------6666666666666666-6-----------|


And there's definitely a little fill before the last chorus.

guest
You may want to rate the tab now too:
select rating
Wanna post a correction for this tab? Suggest correction