Oops, an error
Loading. Please wait.

Rock And Roll Queen Tab

version 4
version 4
1,606 views 1 this week
no commentswrite comment
1 2 3 4 5
1 last vote to show rating
add to favorites
launch autoscroll
font size
0
reset
how to read this tab
guitar tuner
Autoscroll
slow
fast
+/-
esc
set tempo
stop
Help us to improve Ultimate-Guitar.com Take our survey!
×
Difficulty
novice
Lied: Rock 'N' Roll Queen
Band: The Subways

Intro+Vers: (einfach spielen bis der Saenger bei "my heart is blue for you" ist)

E----------------------------------------------------------------------|
B----------------------------------------------------------------------|
G----------------------------------------------------------------------|
D---8-8-8-8-8-8-8-8-8--------------------------------------------------|
A---8-8-8-8-8-8-8-8-8-usw.---------------------------------------------|
E---6-6-6-6-6-6-6-6-6--------------------------------------------------|
pm  . . . . . . . . . 

Refrain: 

    Be my|Be my|Be my little rock 'n' roll queen |dito
E----------------------------------------------------------------------|
B----------------------------------------------------------------------|
G---8---\-6---------------------------------------8-\-6----------------|
D---8---\-6---\-8---------------------------------8-\-6-\-8------------| 2x
A---6---\-4---\-8---------------------------------6-\-4-\-8------------|
E-------------\-6---------------------------------------\-6------------|
    L     L     L                                 L   L   L


Vers: (einfach spielen bis der Saenger bei "you are so rock 'n' roll" ist)

E----------------------------------------------------------------------|
B----------------------------------------------------------------------|
G----------------------------------------------------------------------|
D---8-8-8-8-8-8-8-8-8--------------------------------------------------|
A---8-8-8-8-8-8-8-8-8-usw.---------------------------------------------|
E---6-6-6-6-6-6-6-6-6--------------------------------------------------|
pm  . . . . . . . . . 


Refrain: 

    Be my|Be my|Be my little rock 'n' roll queen |dito
E----------------------------------------------------------------------|
B----------------------------------------------------------------------|
G---8---\-6---------------------------------------8-\-6----------------|
D---8---\-6---\-8---------------------------------8-\-6-\-8------------| 2x
A---6---\-4---\-8---------------------------------6-\-4-\-8------------|
E-------------\-6---------------------------------------\-6------------|
    L     L     L                                 L   L   L


Vers: (einfach spielen bis der Saenger bei "you are so rock 'n' roll" ist)

E----------------------------------------------------------------------|
B----------------------------------------------------------------------|
G----------------------------------------------------------------------|
D---8-8-8-8-8-8-8-8-8--------------------------------------------------|
A---8-8-8-8-8-8-8-8-8-usw.---------------------------------------------|
E---6-6-6-6-6-6-6-6-6--------------------------------------------------|
pm  . . . . . . . . . 

Zwischenspiel:

E----------------------------------------------------------------------|
B----------------------------------------------------------------------|
G----------------------------------------------------------------------|
D---8-8-8-8-8-8-8-8-8--------------------------------------------------|
A---8-8-8-8-8-8-8-8-8-usw.---------------------------------------------|
E---6-6-6-6-6-6-6-6-6--------------------------------------------------|


Refrain: 

    Be my|Be my|Be my little rock 'n' roll queen |dito
E----------------------------------------------------------------------|
B----------------------------------------------------------------------|
G---8---\-6---------------------------------------8-\-6----------------|
D---8---\-6---\-8---------------------------------8-\-6-\-8------------| 2x
A---6---\-4---\-8---------------------------------6-\-4-\-8------------|
E-------------\-6---------------------------------------\-6------------|
    L     L     L                                 L   L   L

Outro:

E------|
B------|
G------|
D---8--|
A---8--|
E---6--|
    L

Legende:
pm: Palm Muted
L: Let Ring (Klingen lassen)
\: Downslide
Suggest correction
Give kudos to tab author, rate the tab!
1 2 3 4 5
comments
print report bad tab
guest
You may want to rate the tab now too:
select rating
Wanna post a correction for this tab? Suggest correction