Oops, an error
Loading. Please wait.

Shake Shake Tab

version 1
version 1

Whole song

Interactive

17,730 views 3 this week
no commentswrite comment
1 2 3 4 5
excellent!
x 4
add to favorites
launch autoscroll
font size
0
reset
how to read this tab
guitar tuner
Tab Pro tools
  • play this tab
  • loop segment
  • change instrument
  • show fretboard
  • metronome
Autoscroll
slow
fast
+/-
esc
set tempo
stop
Contributor
-------------------------------------------------------------------------------
                          SHAKE! SHAKE! - The Subways
-------------------------------------------------------------------------------
Tabbed by: Matthias Hövelmanns
Email: MH-1987@freenet.de

Tuning: Half-Step Down

Listen to the song for the strumming !!
-------------------------------------------------------------------------------

Intro (after the bass):

Eb|-33333/777/121212121212\8888-----------------------------------------| x4
                                        (slide up after the forth time)

Verse: Bass

Pre-Chorus:

eb|---------------------------------------------------------------------|
Bb|---------------------------------------------------------------------|
Gb|-777777-888888-------------------------------------------------------|
Db|-777777-888888-------------------------------------------------------|
Ab|-555555-666666-------------------------------------------------------|
Eb|---------------------------------------------------------------------| x1

Chorus:

eb|-3333-3333-3333-2222-------------------------------------------------|
Bb|-3333-3333-3333-3333-------------------------------------------------|
Gb|-0000-0000-0000-2222-------------------------------------------------|
Db|-2222-2222-0000-0000-------------------------------------------------|
Ab|-2222-3333-2222------------------------------------------------------|
Eb|-0000-0000-3333------------------------------------------------------|

Bridge:

eb|-333-3-3-xxxx-333-3-3-xxxx-------------------------------------------|
Bb|-333-3-3-xxxx-333-3-3-xxxx-------------------------------------------|
Gb|-000-0-0-xxxx-000-0-0-xxxx-------------------------------------------|
Db|-222-2-2-xxxx-222-2-2-xxxx-------------------------------------------|
Ab|-222-2-2-xxxx-333-3-3-xxxx-------------------------------------------|
Eb|-000-0-0-xxxx-000-0-0-xxxx-------------------------------------------| x2

Outro:

eb|-3-|
Bb|-3-|
Gb|-0-|
Db|-2-|
Ab|-2-|
Eb|-0-|


Bass-Intro
Intro
Verse
Pre-Chorus
Chorus
Intro
Pre-Chorus
Chorus
Bridge
Intro
Pre-Chorus
Chorus (x2)
Intro

| /  slide up
| \  slide down
| h  hammer-on
| p  pull-off
| ~  vibrato
| +  harmonic
| x  Mute note
===============================================================================
comments
print report bad tab
I want to post or [tab]
guest
You may want to rate the tab now too:
select rating
Please do not post tabs as comments. Select "correction" instead!