Oops, an error
Loading. Please wait.

Somewhere Tab

5,397 views 3 this week
1 commentread comment
1 2 3 4 5
excellent!
x 8
add to favorites
launch autoscroll
font size
0
reset
how to read this tab
guitar tuner
Autoscroll
slow
fast
+/-
esc
set tempo
stop
Help us to improve Ultimate-Guitar.com Take our survey!
×
Contributor
Artist: The Subways
Song: Somewhere
Album: Young For Eternity
Tuning: Flats - Eb Ab Db Gb Bb Eb
Tabbed By James Morris

Intro
Eb|-Drums--||--------0---------0----------0------------------||
Bb|--------||--------0---------0----------0------------------||
Gb|--------||-5------1--5------1---5------1------------------||
Db|--------||-5-2-2--2--5-2-2--2---5-2-2--2--7-7-7-7-5-5-5---|| x2
Ab|--------||-3-2-2--2--3-2-2--2---3-2-2--2--7-7-7-7-5-5-5---||
Eb|--------||---0-0--0----0-0--0-----0-0--0--5-5-5-5-3-3-3---||

Verse (Acoustic)
                     'Somewhere...'           
Eb|-2-2-2-2-2-2-2-2-2-2-2-2-2-2-2-2-0-0-0-0-0-0-0-0-0-0-0-0-0-0-0-0-|
Bb|-3-3-3-3-3-3-3-3-3-3-3-3-3-3-3-3-1-1-1-1-1-1-1-1-1-1-1-1-1-1-1-1-|
Gb|-2-2-2-2-2-2-2-2-2-2-2-2-2-2-2-2-2-2-2-2-2-2-2-2-2-2-2-2-2-2-2-2-|
Db|-0-0-0-0-0-0-0-0-0-0-0-0-0-0-0-0-2-2-2-2-2-2-2-2-2-2-2-2-2-2-2-2-|x4
Ab|---------------------------------0-0-0-0-0-0-0-0-0-0-0-0-0-0-0-0-|
Eb|-----------------------------------------------------------------|

Main Riff
Eb|--------0---------0----------0------------------|
Bb|--------0---------0----------0------------------|
Gb|-5------1--5------1---5------1------------------|
Db|-5-2-2--2--5-2-2--2---5-2-2--2--7-7-7-7-5-5-5-5-| x2
Ab|-3-2-2--2--3-2-2--2---3-2-2--2--7-7-7-7-5-5-5-5-|
Eb|---0-0--0----0-0--0-----0-0--0--5-5-5-5-3-3-3-3-|

Verse
                    'Don't think...'
Eb|-2-2-2-2-2-2-2-2-2-2-2-2-2-2-2-2-0-0-0-0-0-0-0-0-0-0-0-0-0-0-0-0-|
Bb|-3-3-3-3-3-3-3-3-3-3-3-3-3-3-3-3-1-1-1-1-1-1-1-1-1-1-1-1-1-1-1-1-|
Gb|-2-2-2-2-2-2-2-2-2-2-2-2-2-2-2-2-2-2-2-2-2-2-2-2-2-2-2-2-2-2-2-2-|
Db|-0-0-0-0-0-0-0-0-0-0-0-0-0-0-0-0-2-2-2-2-2-2-2-2-2-2-2-2-2-2-2-2-|x4
Ab|---------------------------------0-0-0-0-0-0-0-0-0-0-0-0-0-0-0-0-|
Eb|-----------------------------------------------------------------|

Main Riff
Eb|--------0---------0----------0------------------|
Bb|--------0---------0----------0------------------|
Gb|-5------1--5------1---5------1------------------|
Db|-5-2-2--2--5-2-2--2---5-2-2--2--7-7-7-7-5-5-5-5-| x2
Ab|-3-2-2--2--3-2-2--2---3-2-2--2--7-7-7-7-5-5-5-5-|
Eb|---0-0--0----0-0--0-----0-0--0--5-5-5-5-3-3-3-3-|

Altered Main Riff
Eb|--------0---------0----------0------------------|
Bb|--------0---------0----------0------------------|
Gb|-5------1--5------1---5------1------------------|
Db|-5-2-2--2--5-2-2--2---5-2-2--2--7-7-7-7-5-5-5-5-| x2
Ab|-3-2-2--2--3-2-2--2---3-2-2--2--7-7-7-7-5-5-5-5-|
Eb|---0-3/00----0-3/00-----0-3/00--5-5-5-5-3-3-3-3-|

Build Up
PM -----------------------------------------------------------------
Eb|-----------------------------------------------------------------|
Bb|-----------------------------------------------------------------|
Gb|-------------------------------------------9-----------9---------|
Db|-5-5-5-5-5-5-5-5-5-5-5-5-5-5-5-5/9-9-9-9-9-9-9-9-9-9-9-9-9-9-9-9-|x2
Ab|-3-3-3-3-3-3-3-3-3-3-3-3-3-3-3-3/7-7-7-7-7-7-7-7-7-7-7-7-7-7-7-7-|
Eb|-----------------------------------------------------------------|

Guitar 1 (Electric)
PM -----------------------------------------------------------------
Eb|-----------------------------------------------------------------|
Bb|-----------------------------------------------------------------|
Gb|-------------------------------------------9-----------9---------|
Db|-5-5-5-5-5-5-5-5-5-5-5-5-5-5-5-5/9-9-9-9-9-9-9-9-9-9-9-9-9-9-9-9-|x2
Ab|-3-3-3-3-3-3-3-3-3-3-3-3-3-3-3-3/7-7-7-7-7-7-7-7-7-7-7-7-7-7-7-7-|
Eb|-----------------------------------------------------------------|

Guitar 2 (Acoustic)
Eb|--------0~~~~~~~~----------------0----0--------------------------|
Bb|-1--1-1--------------------------0--0-0-0~~~---------------------|
Gb|-0--0-0--------------------------1--1-1--------------------------|
Db|-2--2-2--------------------------2--2----------------------------|x2
Ab|-3--3------------------------------------------------------------|
Eb|-----------------------------------------------------------------|

Guitar 1 (Electric)
PM -----------------------------------------------------------------
Eb|-----------------------------------------------------------------|
Bb|-----------------------------------------------------------------|
Gb|-------------------------------------------9-----------9---------|
Db|-5-5-5-5-5-5-5-5-5-5-5-5-5-5-5-5/9-9-9-9-9-9-9-9-9-9-9-9-9-9-9-9-|
Ab|-3-3-3-3-3-3-3-3-3-3-3-3-3-3-3-3/7-7-7-7-7-7-7-7-7-7-7-7-7-7-7-7-|
Eb|-----------------------------------------------------------------|

Guitar 2 (Acoustic)
Eb|-----0---------------------------0---0---------------------------|
Bb|-1-----1-------------------------0-----0-------------------------|
Gb|-0-------0~~~~~------------------1-------1~~~--------------------|
Db|-2-------------------------------2---------2---------------------|
Ab|-3-------------------------------2----------2--------------------|
Eb|-----------------------------------------------------------------|

Guitar 1 (Electric)
PM -----------------------------------------------------------------
Eb|-----------------------------------------------------------------|
Bb|-----------------------------------------------------------------|
Gb|-------------------------------------------9-----------9---------|
Db|-5-5-5-5-5-5-5-5-5-5-5-5-5-5-5-5/9-9-9-9-9-9-9-9-9-9-9-9-9-9-9-9-|
Ab|-3-3-3-3-3-3-3-3-3-3-3-3-3-3-3-3/7-7-7-7-7-7-7-7-7-7-7-7-7-7-7-7-|
Eb|-----------------------------------------------------------------|

Guitar 2 (Acoustic)
Eb|-----0---------------------------0-0-0---------------------------|
Bb|-1-1-1-1-1-1---------------------0-0-0-0-0-0-0-0-0-0-0-0-0-0-0-0-|
Gb|-0-0-0-0-0-0---------------------1-1-1-1-1-1-1-1-1-1-1-1-1-1-1-1-|
Db|-2-2-2-2-2-2---------------------2-2-2-2-2-2-2-2-2-2-2-2-2-2-2-2-|
Ab|-3-3-3-3-3-3---------------------2-2-2-2-2-2-2-2-2-2-2-2-2-2-2-2-|
Eb|-----------------------------------------------------------------|

Guitar 3 (Electric)
Eb|-----------------------------------------------------------------|
Bb|-----------------------------------------------------------------|
Gb|-----------------------------------------------------------------|
Db|-----------------------------------------------------------------|
Ab|-----------------------------------------------------------------|
Eb|----------------------------------------x\\\\\\\\\\\\\\\\\\\\\\\-|
                                               (Pic slide)

Heavier Part/Outro (Play Until end of song)
Guitar 1 (Electric)
Eb|-----------------------------------------------------------------|
Bb|-----------------------------------------------------------------|
Gb|-5-5-5-5-5-5-5-5-5-5-5-5-5-5-5-5-1-1-1-1-1-1-1-1-1-1-1-1-1-1-1-1-|
Db|-5-5-5-5-5-5-5-5-5-5-5-5-5-5-5-5-2-2-2-2-2-2-2-2-2-2-2-2-2-2-2-2-|
Ab|-3-3-3-3-3-3-3-3-3-3-3-3-3-3-3-3-2-2-2-2-2-2-2-2-2-2-2-2-2-2-2-2-|
Eb|---------------------------------0-0-0-0-0-0-0-0-0-0-0-0-0-0-0-0-|

Guitar 2 (Acoustic)
Eb|---------------------------------0-0-0-0-0-0-0-0-0-0-0-0-0-0-0-0-|
Bb|-1-1-1-1-1-1-1-1-1-1-1-1-1-1-1-1-0-0-0-0-0-0-0-0-0-0-0-0-0-0-0-0-|
Gb|-0-0-0-0-0-0-0-0-0-0-0-0-0-0-0-0-1-1-1-1-1-1-1-1-1-1-1-1-1-1-1-1-|
Db|-2-2-2-2-2-2-2-2-2-2-2-2-2-2-2-2-2-2-2-2-2-2-2-2-2-2-2-2-2-2-2-2-|
Ab|-3-3-3-3-3-3-3-3-3-3-3-3-3-3-3-3-2-2-2-2-2-2-2-2-2-2-2-2-2-2-2-2-|
Eb|-----------------------------------------------------------------|

End On
Eb|-3~~~~~-|
Bb|-3~~~~~-|
Gb|-5~~~~~-|
Db|-5~~~~~-|
Ab|-3~~~~~-|
Eb|-3~~~~~-|

End. Please rate and comment. Thanks.
comments
print report bad tab
1 comment total.
0 reply
thelevellers 217 wrote on May 17 2009, 12:48 pm

I think the altered riff sounds better as a second guitar playing:
A-3-5-3---
E-------0-

But other than that, great work, cheers, :-)

I want to post or [tab]
guest
You may want to rate the tab now too:
select rating
Please do not post tabs as comments. Select "correction" instead!