Oops, an error
Loading. Please wait.

Strawberry Blonde Tab

version 1
version 1

Whole song

Interactive

12,692 views 6 this week
10 commentsread comments
1 2 3 4 5
accurate
x 9
add to favorites
launch autoscroll
font size
0
reset
how to read this tab
guitar tuner
Autoscroll
slow
fast
+/-
esc
set tempo
stop
Help us to improve Ultimate-Guitar.com Take our survey!
×
Author
Difficulty
intermediate
This is Strawberry Blonde by The Subways, I watched Billy Lunn play this song on
and i kinda worked out the chords that way, the URL for this is
if you wanna watch it and learn the strumming from that, or you can type in 'The subways 
the roof' and find it there.
So here it is please rate this tab :D


Intro, play the intro 4 times
(I've put how many times you play the actual strumming pattern and not the chord on its own)
e|------------------------------------------|
B|-------------1---------3--------3---------|
G|--0----------0---------0--------0---------|
D|--2----------0---------0--------4---------|
A|--3-(x3)-----3-(x1)----5-(x2)---5-(x2)----|
E|--3---------------------------------------|

Pre-Chorus
"Your the light and I am the firefly..."
e|------------------|
B|------------------|
G|--2--------2------|
D|--0--------1------|
A|--2-(x2)---2-(x2)-|
E|------------------|

Chorus
"Tell me yeah..."
e|--4-------4-------2-------5------|
B|--4-------5-------0-------0------|
G|--4-------6-------3-------6------|
D|--6-------6-------4-------7------|
A|--6-(x1)--4-(x1)--4-(x1)--7------|(x1)
E|--4------------------------------|

after the chorus
e|--2-------0-|
B|--0-------0-|
G|--3-------3-|
D|--4-------0-|
A|--4-(x1)--4-|(x1)
E|------------|

Verse
"If we find the light and turn into..."
e|------------------------------------------|
B|-------------1---------3--------3---------|
G|--0----------0---------0--------0---------|
D|--2----------0---------0--------4---------|
A|--3-(x3)-----3-(x1)----5-(x2)---5-(x2)----|
E|--3---------------------------------------|

"Find the lion deep inside your heart"
e|------------------|
B|------------------|
G|--2--------2------|
D|--0--------1------|
A|--2-(x2)---2-(x2)-|
E|------------------|

Chorus
"Tell me yeah..."
e|--4-------4-------2-------5------|
B|--4-------5-------0-------0------|
G|--4-------6-------3-------6------|
D|--6-------6-------4-------7------|
A|--6-(x1)--4-(x1)--4-(x1)--7------|(x1)
E|--4------------------------------|

"Stroke, by Stroke..."(the strumming pattern changes here)
e|-----------------|
B|-----------------|
G|--6---8---9---11-|
D|--6---8---9---11-|
A|--4---6---7---9--|
E|-----------------|


Chorus
"Tell me yeah..."
e|--4-------4-------2-------5------|
B|--4-------5-------0-------0------|
G|--4-------6-------3-------6------|
D|--6-------6-------4-------7------|
A|--6-(x1)--4-(x1)--4-(x1)--7------|(x1)
E|--4------------------------------|

after the chorus
e|--2-------0-|
B|--0-------0-|
G|--3-------3-|
D|--4-------0-|
A|--4-(x1)--4-|(x1)
E|------------|

Outro
"Your the wind and i am the weather vane..."
e|------------------------------------------|
B|-------------1---------3--------3---------|
G|--0----------0---------0--------0---------|
D|--2----------0---------0--------4---------|
A|--3-(x3)-----3-(x1)----5-(x2)---5-(x2)----|
E|--3---------------------------------------|

Thanks for looking, please rate!
Suggest correction
comments
print report bad tab
10 comments total. Showing first comments.
0 reply
andrew stockdal 31 wrote on September 3 2009, 08:41 am

cheers thats great, but by any chance do you know the solo?

0 reply
Gregsta S93 31 wrote on September 3 2009, 01:29 pm

errrm i dont know but theres one after the chorus that goes like this
E |-7---7---7---7---5---5---5---5---3---3---3---3---2---2---------|
B |---8---8---8---8---8---8---8---8---5---5---5---5---5---5-3-5-0-|
G |---------------------------------------------------------------|
D |---------------------------------------------------------------|
A |---------------------------------------------------------------|
E |---------------------------------------------------------------|

0 reply
Gregsta S93 31 wrote on September 3 2009, 01:29 pm

il try and work the other one out for you

guest
You may want to rate the tab now too:
select rating
Please do not post tabs as comments. Select "correction" instead!