Oops, an error
Loading. Please wait.

Take Me Away Tab

1,326 views 1 this week
no commentswrite comment
1 2 3 4 5
please rate
add to favorites
launch autoscroll
font size
0
reset
how to read this tab
guitar tuner
Autoscroll
slow
fast
+/-
esc
set tempo
stop
Help us to improve Ultimate-Guitar.com Take our survey!
×
Author
Artist: The Subways
Song: Take Me Away
Album: Oh Yeah Single (B-Side)
Tuning: Flats- Eb Ab Db Gb Bb Eb 
Tabbed By James Morris
Date: 25.03.05

Intro

Eb|-----------------------------|
Bb|-----------------------------|
Gb|-3-3-1-3/1/3-----8-8-6-8-6-6-| x4
Db|-4-4-2-4/2/4-----9-9-7-9-7-7-|
Ab|-4-4-2-4/2/4-----9-9-7-9-7-7-|
Eb|-2-2-0-2/0/2-----7-7-5-7-5-5-|


Verse

The guitar only plays a chord now and then but the bass plays:
                                       _ _ _
Gb|---------------------------------|       |
Db|-------------------------7-7-7-7-|       |
Ab|-9-9-9-9-9-9-9-9-7-7-7-7---------| x2    |
Eb|---------------------------------|       |
                                            |
Then                                        |  Plays this whole 
                                            |  cycle twice
Gb|---------------------------------|       |
Db|-9-9-9-9-9-9-9-9-7-7-7-7-7-7-6-5-|       |
Ab|---------------------------------|       |
Eb|---------------------------------|  _ _ _|
                                            
Guitar/Vocals (Verse 1)
Gb
With every single step you take,
The longer you will have to wait,
A sigh in a silent room is a big mistake.

Gb
And now I forget my name,
I left it back in yesterday,
I'll never see, never know what's coming round my way

Pre Chorus
Gb                       Eb
What's coming round my way.

Chorus
   Db           Eb            F               Eb  F  Ab
  'The peace and, the rebels, they know it all they know it'
Eb|-----------------------------------------------------------|
Bb|-----------------------------------------------------------|
Gb|-7~~----------9~~------------------------------------------|
Db|-7~~----------9~~----------4-4-4-4-4-4-4-4-2-2-4-4-7-7-7-7-|
Ab|-5~~----------7~~----------4-4-4-4-4-4-4-4-2-2-4-4-7-7-7-7-|
Eb|---------------------------2-2-2-2-2-2-2-2-0-0-2-2-5-5-5-5-|


Db             Eb          F               Eb   F   Ab
Where you go, I'll follow, take me away to another place, 
Db             Eb          F               Eb   F   Ab
Each day comes, it passes, I won't die with my head up high,
Db             Eb          F               Eb   F   Ab
Where you go, I'll follow, take me away to another place, UH.

Post-Chorus

Eb|-----------------------------|
Bb|-----------------------------|
Gb|-3-3-1-3/1/3-----8-8-6-8-6-6-| 
Db|-4-4-2-4/2/4-----9-9-7-9-7-7-| x4
Ab|-4-4-2-4/2/4-----9-9-7-9-7-7-|
Eb|-2-2-0-2/0/2-----7-7-5-7-5-5-|

Verse 2

Gb
And now I forget my name,
I left it back in yesterday,
I'll never see, never know what's coming round my way

Pre Chorus
Gb                       Eb
What's coming round my way.

Chorus
   Db           Eb            F               Eb  F  Ab
  'The peace and, the rebels, they know it all they know it'
Eb|-----------------------------------------------------------|
Bb|-----------------------------------------------------------|
Gb|-7~~----------9~~------------------------------------------|
Db|-7~~----------9~~----------4-4-4-4-4-4-4-4-2-2-4-4-7-7-7-7-|
Ab|-5~~----------7~~----------4-4-4-4-4-4-4-4-2-2-4-4-7-7-7-7-|
Eb|---------------------------2-2-2-2-2-2-2-2-0-0-2-2-5-5-5-5-|


Db             Eb          F               Eb   F   Ab
Where you go, I'll follow, take me away to another place, 
Db             Eb          F               Eb   F   Ab
Each day comes, it passes, I won't die with my head up high,
Db             Eb          F               Eb   F   Ab
Where you go, I'll follow, take me away to another place.

Break Down?

Db
'And now I forget my name, I left it back in yesterday.'
Eb|---------------------------------------------------|
Bb|---------------------------------------------------|
Gb|-7-7-7-7-7-7-7-7-7-7-7-7-7-7-7-7-7-7-7-7-7-7-7-7-7-|
Db|-7-7-7-7-7-7-7-7-7-7-7-7-7-7-7-7-7-7-7-7-7-7-7-7-7-|
Ab|-5-5-5-5-5-5-5-5-5-5-5-5-5-5-5-5-5-5-5-5-5-5-5-5-5-|
Eb|---------------------------------------------------|

Eb|-----------------------------|
Bb|-----------------------------|
Gb|-3-3-1-3/1/3-----8-8-6-8-6-6-| 
Db|-4-4-2-4/2/4-----9-9-7-9-7-7-| x2
Ab|-4-4-2-4/2/4-----9-9-7-9-7-7-|
Eb|-2-2-0-2/0/2-----7-7-5-7-5-5-|

Db (PM)---------------------------------------------------
'And when you breathe and a sigh in a silent room, it's a big mistake'
Eb|-------------------------------------------------------------------|
Bb|-------------------------------------------------------------------|
Gb|-7-7-7-7-7-7-7-7-7-7-7-7-7-7-7-7-7-7-7-7-7-7-7-7-7-7-7-7-7-7-7-7-7-|
Db|-7-7-7-7-7-7-7-7-7-7-7-7-7-7-7-7-7-7-7-7-7-7-7-7-7-7-7-7-7-7-7-7-7-|
Ab|-5-5-5-5-5-5-5-5-5-5-5-5-5-5-5-5-5-5-5-5-5-5-5-5-5-5-5-5-5-5-5-5-5-|
Eb|-------------------------------------------------------------------|

Solo

Eb|-------------------------------------------------------------------|
Bb|-------------------------------------2-----------------------------|
Gb|-4bu(6)-2-4bu(6)-2----2---2-4-4bu(6)-2-4bu(6)-2-/4-4-4-4-4-4-4-4-4-|
Db|--------------------4---4------------------------------------------|
Ab|-------------------------------------------------------------------|
Eb|-------------------------------------------------------------------|

Eb|-------------------------------------------------------------------|
Bb|-------------------------------------------------------------------|
Gb|-4-4-4-4-4-4-4-4-4-4-4-4-4-4-4-4-4-4-4-4-4bu(5)(5)(5)(5)(5)(5)(6)--|
Db|-------------------------------------------------------------------|
Ab|-------------------------------------------------------------------|
Eb|-------------------------------------------------------------------|

   Db           Eb            F               Eb  F  Ab
  'The peace and, the rebels, they know it all they know it'
Eb|-----------------------------------------------------------|
Bb|-----------------------------------------------------------|
Gb|-7~~7-7-7-7-7-9~~9-9-9-9-9---------------------------------|
Db|-7~~7-7-7-7-7-9~~9-9-9-9-9-4-4-4-4-4-4-4-4-2-2-4-4-7-7-7-7-|
Ab|-5~~5-5-5-5-5-7~~7-7-7-7-7-4-4-4-4-4-4-4-4-2-2-4-4-7-7-7-7-|
Eb|---------------------------2-2-2-2-2-2-2-2-0-0-2-2-5-5-5-5-|

Db             Eb          F               Eb   F   Ab
Where you go, I'll follow, take me away to another place, 
Db             Eb          F               Eb   F   Ab
Each day comes, it passes, I won't die with my head up high,
Db             Eb          F               Eb   F   Ab
Where you go, I'll follow, take me away to another place.

Outro
Eb|-----------------------------|
Bb|-----------------------------|
Gb|-3-3-1-3/1/3-----8-8-6-8-6-6-| 
Db|-4-4-2-4/2/4-----9-9-7-9-7-7-| x3
Ab|-4-4-2-4/2/4-----9-9-7-9-7-7-|
Eb|-2-2-0-2/0/2-----7-7-5-7-5-5-|

                   'Just take me away'
Eb|-----------------------------|
Bb|-----------------------------|
Gb|-3-3-1-3/1/3-----8-8-6-8-6-6~| 
Db|-4-4-2-4/2/4-----9-9-7-9-7-7~| x3
Ab|-4-4-2-4/2/4-----9-9-7-9-7-7~|
Eb|-2-2-0-2/0/2-----7-7-5-7-5-5~|

Drums continue, then finish on:

Eb|---|
Bb|---|
Gb|-3-|
Db|-4-|
Ab|-4-|
Eb|-2-|

That is the complete song. I am pretty sure that it is correct although there
may be a few mistakes. Please rate, comment and if necessary correct. Thanks.

Enjoy.
Suggest correction
What's this?
You can suggest a correction to this tab. Community and Mods will review your correction and vote to approve or reject it.
comments
We did not receive enough feedback on this tab! Please rate:
print report bad tab
1 2 3 4 5
guest
You may want to rate the tab now too:
select rating
Please do not post tabs as comments. Select "correction" instead!