Oops, an error
Loading. Please wait.

The Only Ones Tab

302 views 1 this week
no commentswrite comment
1 2 3 4 5
3 more votes to show rating
add to favorites
launch autoscroll
font size
0
reset
how to read this tab
guitar tuner
Autoscroll
slow
fast
+/-
esc
set tempo
stop
Help us to improve Ultimate-Guitar.com Take our survey!
×
Author
Difficulty
Tuning
novice
D# G# C# F# A# D#
Artist: The Subways
Song: The Only Ones
Album: All Or Nothing (B-Side)
Tuning: E-Flat/Half Step Down


Intro/Verse
e|----------------------------------------------0--|
B|--------3-----------3-----------3----------3-----|
G|-----0-----0-----0-----0-----0-----0----0--------|
D|--2----------------------------------------------|
A|--------------2-----------2----------------------|
E|--------------------------------------2----------|   (x6)

Pre-Chorus
e|--0--000-0-000-0-00-0-000-0-000-0-00-|
B|--3--333-3-333-3-33-3-333-3-333-3-33-|
G|--0--000-0-000-0-00-0-000-0-000-0-00-|
D|--2--000-2-000-2-00-2-000-2-000-2-00-|
A|-------------------------------------|
E|-------------------------------------| (x1)

e|--0-000-0-000-0-00-0-0-0-0-0-0-0-0-|
B|--3-333-3-333-3-33-3-3-3-3-3-3-3-3-|
G|--0-000-0-000-0-00-2-2-2-2-2-2-2-2-|
D|--2-000-2-000-2-00-0-0-0-0-0-0-0-0-|
A|-----------------------------------|
E|-----------------------------------| (x1) 


Chorus #1
e|--3--333-3-333-3-33-3--333-3-333-3-00-|
B|--3--333-3-333-3-33-3--333-3-333-3-00-|
G|--0--000-0-000-0-00-0--000-0-000-0-00-|
D|--0--000-0-000-0-00-2--222-2-222-2-22-|
A|--2--222-2-222-2-22-2--222-2-222-2-22-|
E|--3--333-3-333-3-33-0--000-0-000-0-00-| (x4)

Verse
e|----------------------------------------------0--|
B|--------3-----------3-----------3----------3-----|
G|-----0-----0-----0-----0-----0-----0----0--------|
D|--2----------------------------------------------|
A|--------------2-----------2----------------------|
E|--------------------------------------2----------|  (x6)

Pre-Chorus
e|--0--000-0-000-0-00-0-000-0-000-0-00-|
B|--3--333-3-333-3-33-3-333-3-333-3-33-|
G|--0--000-0-000-0-00-0-000-0-000-0-00-|
D|--2--000-2-000-2-00-2-000-2-000-2-00-|
A|-------------------------------------|
E|-------------------------------------| (x1)

e|--0-000-0-000-0-00-0-0-0-0-0-0-0-0-|
B|--3-333-3-333-3-33-3-3-3-3-3-3-3-3-|
G|--0-000-0-000-0-00-2-2-2-2-2-2-2-2-|
D|--2-000-2-000-2-00-0-0-0-0-0-0-0-0-|
A|-----------------------------------|
E|-----------------------------------| (x1) 

Chorus
e|--3--333-3-333-3-33-3--333-3-333-3-00-|
B|--3--333-3-333-3-33-3--333-3-333-3-00-|
G|--0--000-0-000-0-00-0--000-0-000-0-00-|
D|--0--000-0-000-0-00-2--222-2-222-2-22-|
A|--2--222-2-222-2-22-2--222-2-222-2-22-|
E|--3--333-3-333-3-33-0--000-0-000-0-00-| (x4)

Bridge
e|--7~--------4~--|
B|--7~--------4~--|
G|--9~--------4~--|
D|--9~--------6~--|
A|--7~--------6~--|
E|--7~--------4~--| (x3)

If you want you could instead play the na na na's as a solo like this:

e|------------------------------|
B|------------------------------|
G|------------------------------|
D|--11-9-11-9-----------9--5/6~-|
A|------------11-7-9-11---------|
E|------------------------------| (x3)

e|--2--222-2-222-2-22-5-5-5-5-5-5-5-5-|
B|--2--222-2-222-2-22-5-5-5-5-5-5-5-5-|
G|--3--333-3-333-3-33-5-5-5-5-5-5-5-5-|
D|--4--444-4-444-4-44-7-7-7-7-7-7-7-7-|
A|--4--444-4-444-4-44-7-7-7-7-7-7-7-7-|
E|--2--222-2-222-2-22-5-5-5-5-5-5-5-5-| (x1)

Chorus 2
e|-------------------------------------|
B|-------------------------------------|
G|-------------------------------------|
D|--9--999-9-999-9-44-6-666-6-666-4-44-|
A|--9--999-9-999-9-44-6-666-6-666-4-44-|
E|--7--777-7-777-7-22-4-444-4-444-2-22-| (x4)

Outro
e|-----------------------|
B|-----------------------|
G|-----------------------|
D|--9-9-9-9-9-9-9-9-9~/0-|
A|--9-9-9-9-9-9-9-9-9~/0-|
E|--7-7-7-7-7-7-7-7-7~/0-| (x1)


- Tabbed by bPRIME
  email: canucks_6@hotmail.com
Suggest correction
Give kudos to tab author, rate the tab!
1 2 3 4 5
comments
print report bad tab
guest
You may want to rate the tab now too:
select rating
Wanna post a correction for this tab? Suggest correction