Oops, an error
Loading. Please wait.

This Is The Club Tab

version 1
version 1

Whole song

Interactive

1,380 views 1 this week
1 commentread comment
1 2 3 4 5
not so good
x 4
add to favorites
launch autoscroll
font size
0
reset
how to read this tab
guitar tuner
Autoscroll
slow
fast
+/-
esc
set tempo
stop
Help us to improve Ultimate-Guitar.com Take our survey!
×
Difficulty
novice
The Subways - This is the Club
All or Nothing

Standard Tuning - EADGBE

Intro and Verse Riff
Distorted
e-------------------------------------------|
B-------------------------------------------|
G---------------7-5-----------------7-5-----|
D-----------7-5----------------7-5----------|  Repeat as Necessary
A--7-7--8-5-----------7-7--8-5--------------|
E--5-5----------------5-5-------------------|

Chorus Riff
Distorted
e----------------------------------------------------------|
b------------------------------------------b--b--b---------|
g--(7)/10-10-10-10-10-10-10-10-10/12-12-12-12-12-12-12-12--| Repeat x4
d--(0)-0--0--0--0--0--0--0--0--0--0--0--0--0--0--0--0--0---|
a----------------------------------------------------------|
E----------------------------------------------------------|

Can't Work Out The Bridge
But it is Power Chords on The E-String

Order
Intro x2
Verse 1 x4
Chorus x4
Verse 2 x4
Chorus x4
Bridge x4
Interlude (a pick scratch with the bass of the verse)
Verse 3 (No Guitar)
Chorus x8
Outro (Same as Intro) x2
Suggest correction
comments
print report bad tab
1 comment total.
0 reply
Johann7 10 wrote on October 20 2008, 02:55 pm

sorry dude... this tab is bad!

guest
You may want to rate the tab now too:
select rating
Please do not post tabs as comments. Select "correction" instead!