Oops, an error
Loading. Please wait.

This Is The Club Tab

version 2
version 2

Whole song

Interactive

2,218 views 1 this week
1 commentread comment
1 2 3 4 5
please rate
add to favorites
launch autoscroll
font size
0
reset
how to read this tab
guitar tuner
Autoscroll
slow
fast
+/-
esc
set tempo
stop
Help us to improve Ultimate-Guitar.com Take our survey!
×
Author
Band: The Subways
Album: All Or Nothing
Tabbed By: ConkyJ20

Tuning: Half a Step Down (E Flat)


This Should Be Right. I saw that id tab out the bridge wrong but ive corrected this now. Enjoy! :)


Intro and Verse


Eb----------------------10--------------|
Bb-----------------10------10-----------|
Gb-------------9------9-----------------|
Db---------------9----------------------|
Ab--------777---------------------------|
Eb--------------------------------------|

Verse End

Eb--------------------------------------|
Bb-----------------10-------------------|
Gb-------------9------------------------|
Db---------------9----------------------|
Ab--------777---------------------------|
Eb--------------------------------------|


Chorus

Eb--------------------------------------|
Bb--------------------------------------|
Gb--12-----14^--------------------------|
Db-----X8-------x8----------------------|
Ab--10-----12^--------------------------|
Eb--------------------------------------|


Bridge

Eb--------------------------------------|
Bb--------------------------------------|
Gb--------------------------------------|
Db----------12--11--9--77--99-----------|
Ab---9--12--10--9---7--55--77-----------|
Eb---7--10------------------------------|


Bridge End

Eb--------------------|
Bb--------------------|
Gb--------------------|
Db---5-----2----------|
Ab---3-----0----------|
Eb--------------------|

Solo-Plectrum Slides


Verse -- Bass only

Verse End

Eb-----------|
Bb----10-----| let ring
Gb-----------|
Db-----------|
Ab-----------|
Eb-----------|

Chorus

Eb--------------------------------------|
Bb--------------------------------------|
Gb--12-----14^--------------------------|
Db-----X8-------x8----------------------|
Ab--10-----12^--------------------------|
Eb--------------------------------------|

Outro

Eb----------------------10--------------|
Bb-----------------10------10-----------|
Gb-------------9------9-----------------|
Db---------------9----------------------|
Ab--------777---------------------------|
Eb--------------------------------------|

Eb----------------------10--------------|
Bb-----------------10------10-----------|
Gb-------------9------9-----------------|
Db---------------9----------------------|
Ab--------777---------------------------|
Eb--------------------------------------|

Eb----------------------10--------------|
Bb-----------------10------10-----------|
Gb-------------9------9-----------------|
Db---------------9----------------------|
Ab--------777---------------------------|
Eb--------------------------------------|

Eb--------------------------------------|
Bb-----------------10-------------------|
Gb-------------9------------------------|
Db---------------9----------9-----------|
Ab--------777---------------7-----------|
Eb--------------------------0-----------|




^ = Bend

Intro- x8
Verse- x8
Chorus- x4
Verse- x8
Chorus- x4
Bridge- x3
Solo
Verse
Chorus- x8
Outro
Suggest correction
What's this?
You can suggest a correction to this tab. Community and Mods will review your correction and vote to approve or reject it.
comments
We did not receive enough feedback on this tab! Please rate:
print report bad tab
1 2 3 4 5
1 comment total.
0 reply
mikelowe08 138 wrote on August 11 2010, 12:32 pm

best tab for this song but i think he plays harmonics in the verses. the rest of the tab is fine though:)

guest
You may want to rate the tab now too:
select rating
Please do not post tabs as comments. Select "correction" instead!