Oops, an error
Loading. Please wait.

We Dont Need Money To Have A Good Time Tab

version 2
version 2

Whole song

Interactive

2,488 views 1 this week
no commentswrite comment
1 2 3 4 5
please rate
add to favorites
launch autoscroll
font size
0
reset
how to read this tab
guitar tuner
Autoscroll
slow
fast
+/-
esc
set tempo
stop
Help us to improve Ultimate-Guitar.com Take our survey!
×
Author
Difficulty
novice
--------------------------------------------------------------------------------------|         
WE DONT NEED MONEY TO HAVE A GOOD TIME-THE SUBWAYS
--------------------------------------------------------------------------------------|

off their new album money and celebrity
tabed by: acdcfan1997 email:ewanjmacd@hotmail.co.uk if there is any problems email me !
|-----x-----x-----x-----x-----x-----x-----x---------|
|-----x-----x-----x-----x-----x-----x-----x---------|
|-5-5-x-3-3-x-8-8-x-3-3-x-5-5-x-3-3-x-8-8-x-3-5-3---|
|-5-5-x-3-3-x-8-8-x-3-3-x-5-5-x-3-3-x-8-8-x-3-5-3---|
|-3-3-x-1-1-x-6-6-x-1-1-x-3-3-x-1-1-x-6-6-x-1-3-1---|
|-----x-----x-----x-----x-----x-----x-----x---------| main riff/intro x2

On the lyrics

|-----------|-------|-----------------|-----------------------|
|-----------|-------|-----------------|-----------------------|
|---3----5--|---5---|-----------------|-----------------------|
|---3----5--|---5---|-8-8-8-8-8-8-6-6-|----8-8-8-8--9-9-9-9---|
|---1----3--|---3---|-8-8-8-8-8-8-6-6-|----8-8-8-8--9-9-9-9---|
|-----------|-------|-6-6-6-6-6-6-4-4-|----6-6-6-6--7-7-7-7---|
  ^x3                    ^x3

|-------------------------------------------|      chorus x4
|-------------------------------------------|
|--5-5-5-5--7-7-7-7--8-8-8-8--10-10-10-10---|
|--5-5-5-5--7-7-7-7--8-8-8-8--10-10-10-10---|
|--3-3-3-3--5-5-5-5--6-6-6-6---8--8--8--8---|
|-------------------------------------------|
please rate and comment.
Suggest correction
Give kudos to tab author, rate the tab!
1 2 3 4 5
comments
print report bad tab
guest
You may want to rate the tab now too:
select rating
Wanna post a correction for this tab? Suggest correction