Oops, an error
Loading. Please wait.

With You Tab

version 1
version 1

Whole song

Interactive

10,515 views 10 this week
9 commentsread comments
1 2 3 4 5
excellent!
x 7
add to favorites
launch autoscroll
font size
0
reset
how to read this tab
guitar tuner
Tab Pro tools
  • play this tab
  • loop segment
  • change instrument
  • show fretboard
  • metronome
×
Best way to learn
"With You"
Autoscroll
slow
fast
+/-
esc
set tempo
stop
Contributor
-------------------------------------------------------------------------------
                             With You - The Subways
-------------------------------------------------------------------------------
Tabbed by: green_day9
Email:jack_robert11@hotmail.com

Tuning:EADGBe (Standard)

Ok, I am telling you this is 100% Correct, everyone else says they are doing it in
standard tuning but they are actually doing it half a step down, this is right.

INTRO
e|---------------------------------------------------------------------------|
B|---------------------------------------------------------------------------|
G|---------------------------------------------------------------------------|
D|10-10-10-10-10-10-10-10-10-10-10-10-10-10-10-------------------------------|
A|10-10-10-10-10-10-10-10-10-10-10-10-10-10-10-------------------------------|
E|-8--8--8--8--8--8--8--8--8--8--8--8--8--8--8-------------------------------|

Verse
e|---------------------------------------------------------------------------|
B|---------------------------------------------------------------------------|
G|---------------------------------------------------------------------------|
D|-10-10-10-10----12-12-12-12----13-13-13-13-13-13-13-13-13------------------|
A|-10-10-10-10----12-12-12-12----13-13-13-13-13-13-13-13-13------------------|
E|--8--8--8--8----10-10-10-10----11-11-11-11-11-11-11-11-11------------------|

Verse part 2
e|--------------------------------------------------------------------------------------------|
B|--------------------------------------------------------------------------------------------|
G|--------------------------------------------------------------------------------------------|
D|10-10-xx-10-10--xx-10-10-xx-10-10-xx-10-10-xx-10-10-xx-10-10-10---12-12-12-12---13-13-13-13-|
A|10-10-xx-10-10--xx-10-10-xx-10-10-xx-10-10-xx-10-10-xx-10-10-10---12-12-12-12---13-13-13-13-|
E|-8--8-xx--8--8--xx--8--8-xx--8--8-xx--8--8-xx--8--8-xx--8--8--8---10-10-10-10---11-11-11-11-|

CHORUS
e|--44-44-44-44-44------------------33-33-33-33-33-------------------------------------------|
B|--44-44-44-44-44------------------33-33-33-33-33-------------------------------------------|
G|--55-55-55-55-55--88-88-88-88-88--44-44-44-44-44--55-55-55-55-55---------------------------|
D|--66-66-66-66-66--88-88-88-88-88--55-55-55-55-55--55-55-55-55-55-----------x2--------------|
A|--66-66-66-66-66--66-66-66-66-66--55-55-55-55-55--33-33-33-33-33---------------------------|
E|--44-44-44-44-44------------------33-33-33-33-33-------------------------------------------|
when you repeat the chorus instead of two strokes and stop, just keep strumming.

Post Chorus
e|---------------------------------------------------------------------------|
B|---------------------------------------------------------------------------|
G|-55----55----55----55----55----55----55-777-88888888-----------------------|
D|-55----55----55----55----55----55----55-777-88888888-----------------------|
A|-33-xx-33-xx-33-xx-33-xx-33-xx-33-xx-33-555-66666666-----------------------|
E|---------------------------------------------------------------------------|
                                           he screams YOEW!!!
Slow VERSE
e|---------------------------------------------------------------------------|
B|---------------------------------------------------------------------------|
G|------8---8--8-8---x2-----8-10-8-10-8-3---x2-------------------------------|
D|----9---9--------9---------------------------------------------------------|
A|---9-------------------0---------------------------------------------------|
E|--7------------------------------------------------------------------------|
Once you've done that do it again.

CHORUS

INTERLUDE
e|------------------------------------------------------------------------------------------|
B|------------------------------------------------------------------------------------------|
G|-55555555----12-12-12-12--10-10-10-10-10--888888---7777777-10-10-10-10--12-12-12-12-12-12-|
D|-55555555----12-12-12-12--10-10-10-10-10--888888---7777777-10-10-10-10--12-12-12-12-12-12-|
A|-33333333----10-10-10-10---8--8--8--8--8--666666---5555555--8--8--8--8--10-10-10-10-10-10-|
E|------------------------------------------------------------------------------------------|

CHORUS

INTERLUDE AGAIN

END

End on G5

Thank you, PLEASE RATE AND COMMENT!!! Any personal comments send me email at jack_robert11@hotmail.com.

bb Hope You like it.
comments
print report bad tab
9 comments total. Showing first comments.
+1 reply
subways_rule wrote on November 2 2005, 02:50 pm

Well done mate, you were right when you said that everyone says they are doing it standard but they are actually doing it half a step down..... A1 WELL DONE

0 reply
DaveTheBinman wrote on November 4 2005, 02:43 pm

This is a bad tab. You've tabbed it in standard when its in flats and alot of notes are wrong

+1 reply
subways_rule wrote on November 4 2005, 02:44 pm

yer i no, thats the point, so its for ppl who cant be bothered to tune it

I want to post or [tab]
guest
You may want to rate the tab now too:
select rating
Please do not post tabs as comments. Select "correction" instead!