Oops, an error
Loading. Please wait.

With You Tab

version 2
version 2

Whole song

Interactive

13,127 views 6 this week
3 commentsread comments
1 2 3 4 5
excellent!
x 11
add to favorites
launch autoscroll
font size
0
reset
how to read this tab
guitar tuner
Autoscroll
slow
fast
+/-
esc
set tempo
stop
Help us to improve Ultimate-Guitar.com Take our survey!
×
Author
Difficulty
novice
Artist: The Subways
Song: With You
Album: Young For Eternity
Tuning: Flats - Eb Ab Db Gb Bb Eb
Tabbed By James Morris

Intro
Eb|---------------------------------|
Bb|---------------------------------|
Gb|-6-6-6-6-6-6-6-6-6-6-6-6-6-6-6-6-|
Db|-x-x-x-x-x-x-x-x-x-x-x-x-x-x-x-x-|
Ab|-4-4-4-4-4-4-4-4-4-4-4-4-4-4-4-4-|
Eb|---------------------------------|

Verse
        'I live my life walking down the street...'
Eb|-----------------------------------------------------------------|
Bb|-----------------------------------------------------------------|
Gb|-6-6-6-6-6-6-6-6-6-6-6-6-6-6-6-6-6-6-6-6-6-6-6-6-6-6-6-6-8-8-8---|
Db|-x-x-x-x-x-x-x-x-x-x-x-x-x-x-x-x-x-x-x-x-x-x-x-x-x-x-x-x-x-x-x---|
Ab|-4-4-4-4-4-4-4-4-4-4-4-4-4-4-4-4-4-4-4-4-4-4-4-4-4-4-4-4-6-6-6---|
Eb|-----------------------------------------------------------------|

  'All the time I see your reflection...'
Eb|-0-0-0-0-0-0-0-0-0-0-0-0-0-0-0-0-0-0-0-0-0-0-0-0-0-0-0-0-0-0-0-0-|     
Bb|-0-0-0-0-0-0-0-0-0-0-0-0-0-0-0-0-0-0-0-0-0-0-0-0-0-0-0-0-0-0-0-0-|     
Gb|-1-1-1-1-1-1-1-1-1-1-1-1-1-1-1-1-1-1-1-1-1-1-1-1-1-1-1-1-1-1-1-1-|     
Db|-2-2-2-2-2-2-2-2-2-2-2-2-2-2-2-2-2-2-2-2-2-2-2-2-2-2-2-2-2-2-2-2-|     
Ab|-2-2-2-2-2-2-2-2-2-2-2-2-2-2-2-2-2-2-2-2-2-2-2-2-2-2-2-2-2-2-2-2-|     
Eb|-0-0-0-0-0-0-0-0-0-0-0-0-0-0-0-0-0-0-0-0-0-0-0-0-0-0-0-0-0-0-0-0-|

   'It's ok to feel alone...'
Eb|-----------------------------------------------------------------|
Bb|-----------------------------------------------------------------|
Gb|-6-6-x-x-6-6-x-x-6-6-x-x-6-6-x-x-6-6-x-x-6-6-x-x-6-6-x-6-8-8-8-8-|
Db|-x-x-x-x-x-x-x-x-x-x-x-x-x-x-x-x-x-x-x-x-x-x-x-x-x-x-x-x-x-x-x-x-|
Ab|-4-4-x-x-4-4-x-x-4-4-x-x-4-4-x-x-4-4-x-x-4-4-x-x-4-4-x-4-6-6-6-6-|
Eb|-----------------------------------------------------------------|

'All the time I see your reflection...'
Eb|-0-0-0-0-0-0-0-0-0-0-0-0-0-0-0-0-0-0-0-0-0-0-0-0-0-0-0-0-0-0-0-0-|     
Bb|-0-0-0-0-0-0-0-0-0-0-0-0-0-0-0-0-0-0-0-0-0-0-0-0-0-0-0-0-0-0-0-0-|     
Gb|-1-1-1-1-1-1-1-1-1-1-1-1-1-1-1-1-1-1-1-1-1-1-1-1-1-1-1-1-1-1-1-1-|     
Db|-2-2-2-2-2-2-2-2-2-2-2-2-2-2-2-2-2-2-2-2-2-2-2-2-2-2-2-2-2-2-2-2-|     
Ab|-2-2-2-2-2-2-2-2-2-2-2-2-2-2-2-2-2-2-2-2-2-2-2-2-2-2-2-2-2-2-2-2-|     
Eb|-0-0-0-0-0-0-0-0-0-0-0-0-0-0-0-0-0-0-0-0-0-0-0-0-0-0-0-0-0-0-0-0-|

Chorus
             'Cos when I'm with you...'
Eb|-----------5------------5----------------------------|
Bb|-5-5--5-5--5--5-5--5-5--5-------------9------------9-|
Gb|-6-6--6-6--6--6-6--6-6--6---9-9--9-9--9--9-9--9-9--9-|
Db|-7-7--7-7--7--7-7--7-7--7---9-9--9-9--9--9-9--9-9--9-|
Ab|-7-7--7-7--7--7-7--7-7--7---7-7--7-7--7--7-7--7-7--7-|
Eb|-5-5--5-5--5--5-5--5-5--5----------------------------|

Eb|-----------4------------4----------------------------|
Bb|-4-4--4-4--4--4-4--4-4--4-------------6--6-6-6-6-6-6-|
Gb|-5-5--5-5--5--5-5--5-5--5---6-6--6-6--6--6-6-6-6-6-6-|
Db|-6-6--6-6--6--6-6--6-6--6---6-6--6-6--6--6-6-6-6-6-6-|
Ab|-6-6--6-6--6--6-6--6-6--6---4-4--4-4--4--4-4-4-4-4-4-|
Eb|-4-4--4-4--4--4-4--4-4--4----------------------------|
            'My best days are with you...'
Eb|-5-5-5-5-5-5-5-5-5-5-5-5-5-5-5-5---------------------------------|
Bb|-5-5-6-5-5-5-5-5-5-5-5-5-5-5-5-5-9-9-9-9-9-9-9-9-9-9-9-9-9-9-9-9-|
Gb|-6-6-6-6-6-6-6-6-6-6-6-6-6-6-6-6-9-9-9-9-9-9-9-9-9-9-9-9-9-9-9-9-|
Db|-7-7-7-7-7-7-7-7-7-7-7-7-7-7-7-7-9-9-9-9-9-9-9-9-9-9-9-9-9-9-9-9-|
Ab|-7-7-7-7-7-7-7-7-7-7-7-7-7-7-7-7-7-7-7-7-7-7-7-7-7-7-7-7-7-7-7-7-|
Eb|-5-5-5-5-5-5-5-5-5-5-5-5-5-5-5-5---------------------------------|

Eb|-3-3-3-3-3-3-3-3-3-3-3-3-3-3-3-3---------------------------------|
Bb|-4-4-4-4-4-4-4-4-4-4-4-4-4-4-4-4-6-6-6-6-6-6-6-6-6-6-6-6-6-6-6-6-|
Gb|-5-5-5-5-5-5-5-5-5-5-5-5-5-5-5-5-6-6-6-6-6-6-6-6-6-6-6-6-6-6-6-6-|
Db|-6-6-6-6-6-6-6-6-6-6-6-6-6-6-6-6-6-6-6-6-6-6-6-6-6-6-6-6-6-6-6-6-|
Ab|-6-6-6-6-6-6-6-6-6-6-6-6-6-6-6-6-4-4-4-4-4-4-4-4-4-4-4-4-4-4-4-4-|
Eb|-4-4-4-4-4-4-4-4-4-4-4-4-4-4-4-4---------------------------------|

Bridge
Eb|-----------------------------------------------------------------|
Bb|-----------------------------------------------------------------|
Gb|-6-6-x-x-6-6-x-x-6-6-x-x-6-6-x-x-6-6-x-x-6-6-x-x-6-6-x-6-8-8-8-8-|
Db|-x-x-x-x-x-x-x-x-x-x-x-x-x-x-x-x-x-x-x-x-x-x-x-x-x-x-x-x-x-x-x-x-|
Ab|-4-4-x-x-4-4-x-x-4-4-x-x-4-4-x-x-4-4-x-x-4-4-x-x-4-4-x-4-6-6-6-6-|
Eb|-----------------------------------------------------------------|

Eb|-0-0-0-0-0-0-0-0-0-0-0-0-0-0-0-0-0-0-0-0-0-0-0-0-0-0-0-0-0-0-0-0-|     
Bb|-0-0-0-0-0-0-0-0-0-0-0-0-0-0-0-0-0-0-0-0-0-0-0-0-0-0-0-0-0-0-0-0-|     
Gb|-1-1-1-1-1-1-1-1-1-1-1-1-1-1-1-1-1-1-1-1-1-1-1-1-1-1-1-1-1-1-1-1-|     
Db|-2-2-2-2-2-2-2-2-2-2-2-2-2-2-2-2-2-2-2-2-2-2-2-2-2-2-2-2-2-2-2-2-|     
Ab|-2-2-2-2-2-2-2-2-2-2-2-2-2-2-2-2-2-2-2-2-2-2-2-2-2-2-2-2-2-2-2-2-|     
Eb|-0-0-0-0-0-0-0-0-0-0-0-0-0-0-0-0-0-0-0-0-0-0-0-0-0-0-0-0-0-0-0-0-|

Verse (Slow)                      _ _ _ _ _ _
Eb|---------------------------------|        | 
Bb|---6-----6-------6---6---6-------|        |
Gb|-----6-----6-------6-------6-----|        |
Db|-------6-----6---------6-----6---| x2     |
Ab|-4-------------4---------------4-|        |
Eb|---------------------------------|        |
                                             | Play this sequence x2
Eb|---------0---------------0-------|        |
Bb|---0-------0-----0---------0-----|        |
Gb|-----1-------1-----1---1-----1---|        |
Db|-------2-------2-----2---------2-| x2     |
Ab|---------------------------------|        |
Eb|-0-------------------------------|        |
                                 - - - - - -            
Chorus
             'Cos when I'm with you...'
Eb|-----------5------------5----------------------------|
Bb|-5-5--5-5--5--5-5--5-5--5-------------9------------9-|
Gb|-6-6--6-6--6--6-6--6-6--6---9-9--9-9--9--9-9--9-9--9-|
Db|-7-7--7-7--7--7-7--7-7--7---9-9--9-9--9--9-9--9-9--9-|
Ab|-7-7--7-7--7--7-7--7-7--7---7-7--7-7--7--7-7--7-7--7-|
Eb|-5-5--5-5--5--5-5--5-5--5----------------------------|

Eb|-----------4------------4----------------------------|
Bb|-4-4--4-4--4--4-4--4-4--4-------------6--6-6-6-6-6-6-|
Gb|-5-5--5-5--5--5-5--5-5--5---6-6--6-6--6--6-6-6-6-6-6-|
Db|-6-6--6-6--6--6-6--6-6--6---6-6--6-6--6--6-6-6-6-6-6-|
Ab|-6-6--6-6--6--6-6--6-6--6---4-4--4-4--4--4-4-4-4-4-4-|
Eb|-4-4--4-4--4--4-4--4-4--4----------------------------|
            'My best days are with you...'
Eb|-5-5-5-5-5-5-5-5-5-5-5-5-5-5-5-5---------------------------------|
Bb|-5-5-6-5-5-5-5-5-5-5-5-5-5-5-5-5-9-9-9-9-9-9-9-9-9-9-9-9-9-9-9-9-|
Gb|-6-6-6-6-6-6-6-6-6-6-6-6-6-6-6-6-9-9-9-9-9-9-9-9-9-9-9-9-9-9-9-9-|
Db|-7-7-7-7-7-7-7-7-7-7-7-7-7-7-7-7-9-9-9-9-9-9-9-9-9-9-9-9-9-9-9-9-|
Ab|-7-7-7-7-7-7-7-7-7-7-7-7-7-7-7-7-7-7-7-7-7-7-7-7-7-7-7-7-7-7-7-7-|
Eb|-5-5-5-5-5-5-5-5-5-5-5-5-5-5-5-5---------------------------------|

Eb|-3-3-3-3-3-3-3-3-3-3-3-3-3-3-3-3---------------------------------|
Bb|-4-4-4-4-4-4-4-4-4-4-4-4-4-4-4-4-6-6-6-6-6-6-6-6-6-6-6-6-6-6-6-6-|
Gb|-5-5-5-5-5-5-5-5-5-5-5-5-5-5-5-5-6-6-6-6-6-6-6-6-6-6-6-6-6-6-6-6-|
Db|-6-6-6-6-6-6-6-6-6-6-6-6-6-6-6-6-6-6-6-6-6-6-6-6-6-6-6-6-6-6-6-6-|
Ab|-6-6-6-6-6-6-6-6-6-6-6-6-6-6-6-6-4-4-4-4-4-4-4-4-4-4-4-4-4-4-4-4-|
Eb|-4-4-4-4-4-4-4-4-4-4-4-4-4-4-4-4---------------------------------|

Solo
Eb|-------------------------------------------------------------------|
Bb|-------------------------------------------------------------------|
Gb|-6-6-6-6-6-6-6-6-13131313-11111111-9-9-9-9-9-9-9-9-8-8-8-8-11111111|
Db|-x-x-x-x-x-x-x-x--x-x-x-x--x-x-x-x-x-x-x-x-x-x-x-x-x-x-x-x--x-x-x-x|
Ab|-4-4-4-4-4-4-4-4-11111111--9-9-9-9-7-7-7-7-7-7-7-7-6-6-6-6--9-9-9-9|
Eb|-------------------------------------------------------------------|

Eb|-------------------------------------------------------------------|
Bb|-------------------------------------------------------------------|
Gb|-131313131313131313131313131313131313131313131313131313131313131313|
Db|--x-x-x-x-x-x-x-x-x-x-x-x-x-x-x-x-x-x-x-x-x-x-x-x-x-x-x-x-x-x-x-x-x|
Ab|-111111111111111111111111111111111111111111111111111111111111111111|
Eb|-------------------------------------------------------------------|

Chorus
             'Cos when I'm with you...'
Eb|-----------5------------5----------------------------|
Bb|-5-5--5-5--5--5-5--5-5--5-------------9------------9-|
Gb|-6-6--6-6--6--6-6--6-6--6---9-9--9-9--9--9-9--9-9--9-|
Db|-7-7--7-7--7--7-7--7-7--7---9-9--9-9--9--9-9--9-9--9-|
Ab|-7-7--7-7--7--7-7--7-7--7---7-7--7-7--7--7-7--7-7--7-|
Eb|-5-5--5-5--5--5-5--5-5--5----------------------------|

Eb|-----------4------------4----------------------------|
Bb|-4-4--4-4--4--4-4--4-4--4-------------6--6-6-6-6-6-6-|
Gb|-5-5--5-5--5--5-5--5-5--5---6-6--6-6--6--6-6-6-6-6-6-|
Db|-6-6--6-6--6--6-6--6-6--6---6-6--6-6--6--6-6-6-6-6-6-|
Ab|-6-6--6-6--6--6-6--6-6--6---4-4--4-4--4--4-4-4-4-4-4-|
Eb|-4-4--4-4--4--4-4--4-4--4----------------------------|
            'My best days are with you...'
Eb|-5-5-5-5-5-5-5-5-5-5-5-5-5-5-5-5---------------------------------|
Bb|-5-5-6-5-5-5-5-5-5-5-5-5-5-5-5-5-9-9-9-9-9-9-9-9-9-9-9-9-9-9-9-9-|
Gb|-6-6-6-6-6-6-6-6-6-6-6-6-6-6-6-6-9-9-9-9-9-9-9-9-9-9-9-9-9-9-9-9-|
Db|-7-7-7-7-7-7-7-7-7-7-7-7-7-7-7-7-9-9-9-9-9-9-9-9-9-9-9-9-9-9-9-9-|
Ab|-7-7-7-7-7-7-7-7-7-7-7-7-7-7-7-7-7-7-7-7-7-7-7-7-7-7-7-7-7-7-7-7-|
Eb|-5-5-5-5-5-5-5-5-5-5-5-5-5-5-5-5---------------------------------|

Eb|-3-3-3-3-3-3-3-3-3-3-3-3-3-3-3-3---------------------------------|
Bb|-4-4-4-4-4-4-4-4-4-4-4-4-4-4-4-4-6-6-6-6-6-6-6-6-6-6-6-6-6-6-6-6-|
Gb|-5-5-5-5-5-5-5-5-5-5-5-5-5-5-5-5-6-6-6-6-6-6-6-6-6-6-6-6-6-6-6-6-|
Db|-6-6-6-6-6-6-6-6-6-6-6-6-6-6-6-6-6-6-6-6-6-6-6-6-6-6-6-6-6-6-6-6-|
Ab|-6-6-6-6-6-6-6-6-6-6-6-6-6-6-6-6-4-4-4-4-4-4-4-4-4-4-4-4-4-4-4-4-|
Eb|-4-4-4-4-4-4-4-4-4-4-4-4-4-4-4-4---------------------------------|

Outro
Eb|-------------------------------------------------------------------|
Bb|-------------------------------------------------------------------|
Gb|-6-6-6-6-6-6-6-6-13131313-11111111-9-9-9-9-9-9-9-9-8-8-8-8-11111111|
Db|-x-x-x-x-x-x-x-x--x-x-x-x--x-x-x-x-x-x-x-x-x-x-x-x-x-x-x-x--x-x-x-x|
Ab|-4-4-4-4-4-4-4-4-11111111--9-9-9-9-7-7-7-7-7-7-7-7-6-6-6-6--9-9-9-9|
Eb|-------------------------------------------------------------------|

End On
Eb|--------|
Bb|--------|
Gb|-13~~~~-|
Db|--x~~~~-|
Ab|-11~~~~-|
Eb|--------|

End On. Please rate and comment. Thanks
Suggest correction new What's this?
You can suggest a correction to this tab. Community and Mods will review your correction and vote to approve or reject it.
comments
print report bad tab
3 comments total.
0 reply
dan121212 154 wrote on February 2 2006, 02:32 pm

do iti on a power chord 553 then it will sound beta on the middle strings

0 reply
Guardian_Force 139 wrote on July 21 2008, 07:06 pm

billy plays the third chord in the chorus like this:

eb|--x --|
Bb|--12--|
Gb|--13--|
Db|--13--|
Ab|--11--|
Eb|--x --|

and in the second part of the chorus, the second chord should be E major .. then it will sound better :)

0 reply
=Thunderbird= 186 wrote on January 11 2013, 02:10 pm

Instead of

Eb|---
Bb|-6-
Gb|-6-
Db|-6-
Ab|-4-
Eb|---

it s always (Cm)

Eb|---
Bb|-5-
Gb|-6-
Db|-6-
Ab|-4-
Eb|---

Theory: The song is Ab Major, so Major chords are Ab, Db, Eb,
Minor chords are Bbm, Cm, Fm

Try it if you don't believe me.

for example in the chorus:

'My best days are with you...'
Eb|-5-5-5-5-5-5-5-5-5-5-5-5-5-5-5-5---------------------------------|
Bb|-5-5-6-5-5-5-5-5-5-5-5-5-5-5-5-5-9-9-9-9-9-9-9-9-9-9-9-9-9-9-9-9-|
Gb|-6-6-6-6-6-6-6-6-6-6-6-6-6-6-6-6-9-9-9-9-9-9-9-9-9-9-9-9-9-9-9-9-|
Db|-7-7-7-7-7-7-7-7-7-7-7-7-7-7-7-7-9-9-9-9-9-9-9-9-9-9-9-9-9-9-9-9-|
Ab|-7-7-7-7-7-7-7-7-7-7-7-7-7-7-7-7-7-7-7-7-7-7-7-7-7-7-7-7-7-7-7-7-|
Eb|-5-5-5-5-5-5-5-5-5-5-5-5-5-5-5-5---------------------------------|

Eb|-3-3-3-3-3-3-3-3-3-3-3-3-3-3-3-3---------------------------------|
Bb|-4-4-4-4-4-4-4-4-4-4-4-4-4-4-4-4-5-5-5-5-5-5-5-5-5-5-5-5-5-5-5-5-|
Gb|-5-5-5-5-5-5-5-5-5-5-5-5-5-5-5-5-6-6-6-6-6-6-6-6-6-6-6-6-6-6-6-6-|
Db|-6-6-6-6-6-6-6-6-6-6-6-6-6-6-6-6-6-6-6-6-6-6-6-6-6-6-6-6-6-6-6-6-|
Ab|-6-6-6-6-6-6-6-6-6-6-6-6-6-6-6-6-4-4-4-4-4-4-4-4-4-4-4-4-4-4-4-4-|
Eb|-4-4-4-4-4-4-4-4-4-4-4-4-4-4-4-4---------------------------------|

Nice tab anyway!

guest
You may want to rate the tab now too:
select rating
Please do not post tabs as comments. Select "correction" instead!