Oops, an error
Loading. Please wait.

You Got Me Tab

1,227 views 1 this week
no commentswrite comment
1 2 3 4 5
please rate
add to favorites
launch autoscroll
font size
0
reset
how to read this tab
guitar tuner
Autoscroll
slow
fast
+/-
esc
set tempo
stop
Help us to improve Ultimate-Guitar.com Take our survey!
×
I love the this band and also this song has a lot of energy, this is one of the 
versions, I think both versions are pretty good. 

Intro (with light distortion):
|-------------------------------|
|-------------------------------|
|-----------------------2---2---| X3
|-2-2-2-2-2-2-2-2-2-2-2-0---0-2-|
|-0-0-3-0-0-0-3-0-0-0-3-------3-|
|-------------------------------|

|-------------------------------|
|-------------------------------|
|-------------------------------|
|-2-2-2-2-2-2-2-2-2-------------|
|-0-0-3-0-0-0-3-0-0-------------|
|-------------------------------|

Main Riff (with loud distortion):
|-----------------------------|
|-----------------------------|
|-2-2-2-2-2-2-2-2-2-2-5-5-5-5-|
|-2-2-2-2-2-2-2-2-2-2-5-5-5-5-|
|-0-0-0-0-0-0-0-0-0-0-3-3-3-3-|
|-----------------------------|

Pre Chorus:
|-0-------0------------------|
|-0-------3~-----------------|
|-1~------2~------4~------4--|
|-2~------0~------5~------5--|
|-2~------0-------5~------3--|
|-0-------2-------3~------3--|

Chorus:
|--------------------------------|
|--------------------------------|
|----------------7-5-7-5-7-5-7-5-|
|---5-7----4-5---7-5-7-5-7-5-7-5-|
|-7-----5------3-----------------|
|--------------------------------|

Outro:
|-------------------------------|
|---------------------7b8~------|
|-2-2-2-2-2-2-2-2-2-2-7b8~------|
|-2-2-2-2-2-2-2-2-2-2-----------|
|-0-0-0-0-0-0-0-0-0-0-----------|
|-------------------------------|

|-----------------------------|
|-----------------------------|
|-2-2-2-2-2-2-2-2-2-2---------|
|-2-2-2-2-2-2-2-2-2-2---------|
|-0-0-0-0-0-0-0-0-0-0---------|
|-----------------------------|

Order:
Intro
Main Riff x4
Main Riff (Don't play sometimes) x4
Pre Chorus
Main Riff (Don't play sometimes) x4
Pre Chorus
Chorus x4
Intro
Main Riff x4
Pre Chorus
Chorus x8
Outro


Suggest correction
Give kudos to tab author, rate the tab!
1 2 3 4 5
comments
print report bad tab
guest
You may want to rate the tab now too:
select rating
Wanna post a correction for this tab? Suggest correction