Oops, an error
Loading. Please wait.

Young For Eternity Tab

version 1
version 1

Whole song

6,008 views 1 this week
1 commentread comment
1 2 3 4 5
accurate
x 4
add to favorites
launch autoscroll
font size
0
reset
how to read this tab
guitar tuner
Tab Pro tools
  • play this tab
  • loop segment
  • change instrument
  • show fretboard
  • metronome
×
Best way to learn
"Young For Eternity"
Autoscroll
slow
fast
+/-
esc
set tempo
stop
Contributor
Artist: The Subways
Song: Young For Eternity
Album: Young For Eternity
Tuning: Flats - Eb Ab Db Gb Bb Eb
Tabbed By James Morris

Intro
Eb|--------|
Bb|--------|
Gb|--------|
Db|--------|
Ab|--------|
Eb|-0//\\//|

Main Riff
Eb|-------------------------------------------------------------------|
Bb|-0--0-0-----------0--0-0-----------0--0-0-----------7-7-7-7--------|
Gb|-1--1-1-/12121212-1--1-1-/12121212-1--1-1-/12121212-7-7-7-7-4-4-4-4|
Db|-2--2-2-/-x-x-x-x-2--2-2-/-x-x-x-x-2--2-2-/-x-x-x-x-7-7-7-7-5-5-5-5|
Ab|-2--2-2-/10101010-2--2-2-/10101010-2--2-2-/10101010-5-5-5-5-5-5-5-5|
Eb|-0--0-0-----------0--0-0-----------0--0-0-------------------3-3-3-3|

Eb|-------------------------------------------------------------------|
Bb|-0--0-0-----------0--0-0-----------0--0-0-----------7-7-7-7--------|
Gb|-1--1-1-/12121212-1--1-1-/12121212-1--1-1-/12121212-7-7-7-7-4-4-4-4|
Db|-2--2-2-/-x-x-x-x-2--2-2-/-x-x-x-x-2--2-2-/-x-x-x-x-7-7-7-7-5-5-5-5|
Ab|-2--2-2-/10101010-2--2-2-/10101010-2--2-2-/10101010-5-5-5-5-5-5-5-5|
Eb|-0--0-0-----------0--0-0-----------0--0-0-------------------3-3-3-3|

Eb|-----------------------------------------------------------------|
Bb|-----------------------------------------------------------------|
Gb|-9-9-9-9-9-9-9-9-9-9-9-9-9-9-9-9-9-9-9-9-9-9-9-9-9-9-9-9-9-9-9-9-|
Db|-9-9-9-9-9-9-9-9-9-9-9-9-9-9-9-9-9-9-9-9-9-9-9-9-9-9-9-9-9-9-9-9-|
Ab|-7-7-7-7-7-7-7-7-7-7-7-7-7-7-7-7-7-7-7-7-7-7-7-7-7-7-7-7-7-7-7-7-|
Eb|-0-0-0-0-0-0-0-0-0-0-0-0-0-0-0-0-0-0-0-0-0-0-0-0-0-0-0-0-0-0-0-0-|

Verse
Eb|-----------------------------------------------------------------|
Bb|-------------------------------------------------7-7-7-7---------|
Gb|-9-9-9-9-9-9-9-9-9-9-9-9-9-9-9-9-9-9-9-9-9-9-9-9-7-7-7-7-4-4-4-4-|
Db|-9-9-9-9-9-9-9-9-9-9-9-9-9-9-9-9-9-9-9-9-9-9-9-9-7-7-7-7-5-5-5-5-|
Ab|-7-7-7-7-7-7-7-7-7-7-7-7-7-7-7-7-7-7-7-7-7-7-7-7-5-5-5-5-5-5-5-5-|
Eb|-0-0-0-0-0-0-0-0-0-0-0-0-0-0-0-0-0-0-0-0-0-0-0-0---------3-3-3-3-|

Eb|-----------------------------------------------------------------|
Bb|-------------------------------------------------7-7-7-7---------|
Gb|-9-9-9-9-9-9-9-9-9-9-9-9-9-9-9-9-9-9-9-9-9-9-9-9-7-7-7-7-4-4-4-4-|
Db|-9-9-9-9-9-9-9-9-9-9-9-9-9-9-9-9-9-9-9-9-9-9-9-9-7-7-7-7-5-5-5-5-|
Ab|-7-7-7-7-7-7-7-7-7-7-7-7-7-7-7-7-7-7-7-7-7-7-7-7-5-5-5-5-5-5-5-5-|
Eb|-0-0-0-0-0-0-0-0-0-0-0-0-0-0-0-0-0-0-0-0-0-0-0-0---------3-3-3-3-|

Chorus
Eb|-------------------------------------------------------------------|
Bb|-0--0-0-----------0--0-0-----------0--0-0-----------7-7-7-7--------|
Gb|-1--1-1-/12121212-1--1-1-/12121212-1--1-1-/12121212-7-7-7-7-4-4-4-4|
Db|-2--2-2-/-x-x-x-x-2--2-2-/-x-x-x-x-2--2-2-/-x-x-x-x-7-7-7-7-5-5-5-5|
Ab|-2--2-2-/10101010-2--2-2-/10101010-2--2-2-/10101010-5-5-5-5-5-5-5-5|
Eb|-0--0-0-----------0--0-0-----------0--0-0-------------------3-3-3-3|

Eb|-------------------------------------------------------------------|
Bb|-0--0-0-----------0--0-0-----------0--0-0-----------7-7-7-7--------|
Gb|-1--1-1-/12121212-1--1-1-/12121212-1--1-1-/12121212-7-7-7-7-4-4-4-4|
Db|-2--2-2-/-x-x-x-x-2--2-2-/-x-x-x-x-2--2-2-/-x-x-x-x-7-7-7-7-5-5-5-5|
Ab|-2--2-2-/10101010-2--2-2-/10101010-2--2-2-/10101010-5-5-5-5-5-5-5-5|
Eb|-0--0-0-----------0--0-0-----------0--0-0-------------------3-3-3-3|

Bridge
Eb|-----------------------------------------------------------------|
Bb|-------------------------------------------------7-7-7-7---------|
Gb|-9-9-9-9-9-9-9-9-9-9-9-9-9-9-9-9-9-9-9-9-9-9-9-9-7-7-7-7-4-4-4-4-|
Db|-9-9-9-9-9-9-9-9-9-9-9-9-9-9-9-9-9-9-9-9-9-9-9-9-7-7-7-7-5-5-5-5-|
Ab|-7-7-7-7-7-7-7-7-7-7-7-7-7-7-7-7-7-7-7-7-7-7-7-7-5-5-5-5-5-5-5-5-|
Eb|-0-0-0-0-0-0-0-0-0-0-0-0-0-0-0-0-0-0-0-0-0-0-0-0---------3-3-3-3-|

Eb|-----------------------------------------------------------------|
Bb|-------------------------------------------------7-7-7-7---------|
Gb|-9-9-9-9-9-9-9-9-9-9-9-9-9-9-9-9-9-9-9-9-9-9-9-9-7-7-7-7-4-4-4-4-|
Db|-9-9-9-9-9-9-9-9-9-9-9-9-9-9-9-9-9-9-9-9-9-9-9-9-7-7-7-7-5-5-5-5-|
Ab|-7-7-7-7-7-7-7-7-7-7-7-7-7-7-7-7-7-7-7-7-7-7-7-7-5-5-5-5-5-5-5-5-|
Eb|-0-0-0-0-0-0-0-0-0-0-0-0-0-0-0-0-0-0-0-0-0-0-0-0---------3-3-3-3-|

Verse 2
Eb|-----------------------------------------------------------------|
Bb|-------------------------------------------------7-7-7-7---------|
Gb|-------------------------------------------------7-7-7-7-4-4-4-4-|
Db|-------------------------------------------------7-7-7-7-5-5-5-5-|
Ab|-------------------------------------------------5-5-5-5-5-5-5-5-|
Eb|---------------------------------------------------------3-3-3-3-|

Eb|-----------------------------------------------------------------|
Bb|-------------------------------------------------7-7-7-7---------|
Gb|-9-9-9-9-9-9-9-9-9-9-9-9-9-9-9-9-9-9-9-9-9-9-9-9-7-7-7-7-4-4-4-4-|
Db|-9-9-9-9-9-9-9-9-9-9-9-9-9-9-9-9-9-9-9-9-9-9-9-9-7-7-7-7-5-5-5-5-|
Ab|-7-7-7-7-7-7-7-7-7-7-7-7-7-7-7-7-7-7-7-7-7-7-7-7-5-5-5-5-5-5-5-5-|
Eb|-0-0-0-0-0-0-0-0-0-0-0-0-0-0-0-0-0-0-0-0-0-0-0-0---------3-3-3-3-|

Chorus
Eb|-------------------------------------------------------------------|
Bb|-0--0-0-----------0--0-0-----------0--0-0-----------7-7-7-7--------|
Gb|-1--1-1-/12121212-1--1-1-/12121212-1--1-1-/12121212-7-7-7-7-4-4-4-4|
Db|-2--2-2-/-x-x-x-x-2--2-2-/-x-x-x-x-2--2-2-/-x-x-x-x-7-7-7-7-5-5-5-5|
Ab|-2--2-2-/10101010-2--2-2-/10101010-2--2-2-/10101010-5-5-5-5-5-5-5-5|
Eb|-0--0-0-----------0--0-0-----------0--0-0-------------------3-3-3-3|

Eb|-------------------------------------------------------------------|
Bb|-0--0-0-----------0--0-0-----------0--0-0-----------7-7-7-7--------|
Gb|-1--1-1-/12121212-1--1-1-/12121212-1--1-1-/12121212-7-7-7-7-4-4-4-4|
Db|-2--2-2-/-x-x-x-x-2--2-2-/-x-x-x-x-2--2-2-/-x-x-x-x-7-7-7-7-5-5-5-5|
Ab|-2--2-2-/10101010-2--2-2-/10101010-2--2-2-/10101010-5-5-5-5-5-5-5-5|
Eb|-0--0-0-----------0--0-0-----------0--0-0-------------------3-3-3-3|

Breakdown
Guitar 1    * = Harmonics
Eb|----------------------------------------------------------------|
Bb|----------------------------------------------------------------|
Gb|----------------------------------------------------------------|
Db|------------------------------------------------7-7-7-7---------|
Ab|------------------------------------------------5-5-5-5-5-5-5-5-|
Eb|-0-0-3*0-0-0-3*0-0-0-3*0-0-0-3*0-0-0-3*0-0-0-3*---------3-3-3-3-|

Guitar 2
Eb|----------------------------------------------------------------|
Bb|----------------------------------------------------------------|
Gb|------------------------------------------------7-7-7-7---------|
Db|------------------------------------------------7-7-7-7-5-5-5-5-|
Ab|------------------------------------------------5-5-5-5-5-5-5-5-|
Eb|--------------------------------------------------------3-3-3-3-|

Guitar 1
Eb|-----------------------------------------------------------------|
Bb|-----------------------------------------------------------------|
Gb|-----------------------------------------------------------------|
Db|-------------------------------------------------7-7-7-7---------|
Ab|-----2---0-1-2-2-----2---0-1-2-2-----2---0-1-2-2-5-5-5-5-5~~-----|
Eb|-0-0---0---------0-0---0---------0-0---0-----------------3~~-----|

Guitar 2
Eb|-----------------------------------------------------------------|
Bb|-----------------------------------------------------------------|
Gb|-------------------------------------------------7-7-7-7---------|
Db|-----4---2-3-4-4-----4---2-3-4-4-----4---2-3-4-4-7-7-7-7-5-------|
Ab|-2-2-2-2-0-1-2-2-2-2-2-2-0-1-2-2-2-2-2-2-0-1-2-2-5-5-5-5-5-------|
Eb|-0-0---0---------0-0---0---------0-0---0-----------------3---3*--|

Chorus
Eb|-----------------------------------------------------------------|
Bb|-------------------------------------------------7-7-7-7---------|
Gb|-9-9-9-9-9-9-9-9-9-9-9-9-9-9-9-9-9-9-9-9-9-9-9-9-7-7-7-7-4-4-4-4-|
Db|-9-9-9-9-9-9-9-9-9-9-9-9-9-9-9-9-9-9-9-9-9-9-9-9-7-7-7-7-5-5-5-5-|
Ab|-7-7-7-7-7-7-7-7-7-7-7-7-7-7-7-7-7-7-7-7-7-7-7-7-5-5-5-5-5-5-5-5-|
Eb|-0-0-0-0-0-0-0-0-0-0-0-0-0-0-0-0-0-0-0-0-0-0-0-0---------3-3-3-3-|

Eb|-----------------------------------------------------------------|
Bb|-------------------------------------------------7-7-7-7---------|
Gb|-9-9-9-9-9-9-9-9-9-9-9-9-9-9-9-9-9-9-9-9-9-9-9-9-7-7-7-7-4-4-4-4-|
Db|-9-9-9-9-9-9-9-9-9-9-9-9-9-9-9-9-9-9-9-9-9-9-9-9-7-7-7-7-5-5-5-5-|
Ab|-7-7-7-7-7-7-7-7-7-7-7-7-7-7-7-7-7-7-7-7-7-7-7-7-5-5-5-5-5-5-5-5-|
Eb|-0-0-0-0-0-0-0-0-0-0-0-0-0-0-0-0-0-0-0-0-0-0-0-0---------3-3-3-3-|

Outro
Guitar 1
Eb|-----------------------------------------------------------------|
Bb|-----------------------------------------------------------------|
Gb|-----------------------------------------------------------------|
Db|-------------------------------------------------7-7-7-7---------|
Ab|-----2---0-1-2-2-----2---0-1-2-2-----2---0-1-2-2-5-5-5-5-5-5-5-5-|
Eb|-0-0---0---------0-0---0---------0-0---0-----------------3-3-3-3-|

Guitar 2
Eb|-----------------------------------------------------------------|
Bb|-----------------------------------------------------------------|
Gb|-------------------------------------------------7-7-7-7---------|
Db|-----4---2-3-4-4-----4---2-3-4-4-----4---2-3-4-4-7-7-7-7-5-5-5-5-|
Ab|-2-2-2-2-0-1-2-2-2-2-2-2-0-1-2-2-2-2-2-2-0-1-2-2-5-5-5-5-5-5-5-5-|
Eb|-0-0---0---------0-0---0---------0-0---0-----------------3-3-3-3-|

Guitar 1
Eb|-----------------------------------------------------------------|
Bb|-----------------------------------------------------------------|
Gb|-----------------------------------------------------------------|
Db|-------------------------------------------------7-7-7-7---------|
Ab|-----2---0-1-2-2-----2---0-1-2-2-----2---0-1-2-2-5-5-5-5-5-5-5-5-|
Eb|-0-0---0---------0-0---0---------0-0---0-----------------3-3-3-3-|

Guitar 2
Eb|-----------------------------------------------------------------|
Bb|-----------------------------------------------------------------|
Gb|-------------------------------------------------7-7-7-7---------|
Db|-----4---2-3-4-4-----4---2-3-4-4-----4---2-3-4-4-7-7-7-7-5-5-5-5-|
Ab|-2-2-2-2-0-1-2-2-2-2-2-2-0-1-2-2-2-2-2-2-0-1-2-2-5-5-5-5-5-5-5-5-|
Eb|-0-0---0---------0-0---0---------0-0---0-----------------3-3-3-3-|

End On
Eb|-0~-|
Bb|-0~-|
Gb|-1~-|
Db|-2~-|
Ab|-2~-|
Eb|-0~-|

End. Please rate and comment. Thanks.
comments
print report bad tab
1 comment total.
0 reply
Zaddik wrote on February 11 2007, 04:39 pm

the riff near the end is wrong. he plays chords not single notes.

I want to post or [tab]
guest
You may want to rate the tab now too:
select rating
Please do not post tabs as comments. Select "correction" instead!